Музыка, аккорды для гитары, тексты песен и GTP самых популярных исполнителей на Akkords.NET
Подборки аккордов для гитары, табулатур, GTP на www.akkords.net
Поиск аккордов
 Аккорды и тексты песен Metallica — Better Than You
GTP к тексту песен : Отсутствует
Я хочу, чтобы добавили GTP этой песне

Metallica — Better Than You

tune all guitars down 1/2 step

|-----------------|-----------------|-----------------|-----------------|
|------REST-------|------REST-------|------REST-------|------REST-------|
|-----------------|-----------------|-----------------|-----------------|
|-----------------|-----------------|-----------------|-----------------|

3x
|------------------|------------------|-----------------|-----------------|
|o-------REST------|--------REST-----o|-----------------|-----------------|
|o-----------------|-----------------o|-----------------|-----------------|
|------------------|------------------|-0-0-0-0-0-0-0-0-|-0-0-0-0-0-0-0-0-|

1.2.3.___________ 4._______________
|---------------------|-----------------|-----------------||
|o--------------------|-----------------|-----------------||
|o-10----(10)7-------|-7-------5-6-7---|-7-------7-5-----||
|--0--0-0-0---0-0-0-0-|-0-0-0-0-0-0-0-0-|-0-0-0-0-----7-5-||


|------------------|-----------------|-----------------|-----------------|
|o-----------------|-----------------|-----------------|-----------------|
|o-----------------|-----------------|-----------------|-7---------------|
|--3-----3---3---3-|-5-----5---5---0-|-3-------0-0-0-0-|-0-0-0-0-3-4-5-0-|


|-----------------|-----------------|-----------------|-----------------|
|-----------------|-----------------|-----------------|-----------------|
|-----------------|-----------------|-----------------|-7---------------|
|-3-----3---3---3-|-5-----5---5---0-|-3-------0-0-0-0-|-0-0-0-0-3-4-5-0-|


|-----------------|-----------------|-----------------|-----------------|
|-----------------|-----------------|-----------------|-----------------|
|-----------------|-----------------|-3-----3---3-3-3-|-5-5-5-5-5-5-5-2-|
|-3-----3---3---3-|-5-----5---5---0-|-----------------|-----------------|


|-----------------|-----------------|-----------------|-----------------|
|-----------------|-----------------|-----------------|-----------------|
|-----------------|-----------------|-----------------|-----------------|
|-3---3-3---3-3-3-|-5-5-5-5---5-5-3|-1---1-1-1---1---|-3---------------|


|-----------------|-----------------|-----------------|-----------------|
|-----------------|-----------------|-----------------|-----------------|
|---------7-------|-7-------5-6-7---|---------7-------|-7-------5-6-7---|
|-3------0-0-0-0-|-0-0-0-0-0-0-0-0-|-3------0-0-0-0-|-0-0-0-0-0-0-0-0-|

1.________________ 2._______________
|-----------------|-----------------|-----------------|------------------|-----------------|
|-----------------|-----------------|-----------------|-----------------o|-----------------|
|---------7-------|-7-------5-6-7---|---------7-------|-5-------5-------o|-7-------7-------|
|-3------0-0-0-0-|-0-0-0-0-0-0-0-0-|-3------0-0-0-0-|---7-5-0---7-5-0--|-0-0-0-0-0-0-0-0-|


|-----------------|-----------------|-----------------|-----------------|
|-----------------|-----------------|-----------------|-----------------|
|-0---------------|-----------------|-0---------------|-----------------|
|---2-----0-2-----|-2-2---2-2-2-2-2-|---2-----0-2-----|-0-------1-------|


|-----------------|-----------------|-----------------|-----------------|
|-----------------|-----------------|-----------------|-----------------|
|-0---------------|-----------------|-0---------------|-----------------|
|---2-----0-2-----|-2-2---2-2-2-2-2-|---2-----0-2-----|-0-------1-------|


|-----------------|-----------------|-----------------|-----------------|
|-----------------|-----------------|-----------------|-----------------|
|-2---------------|-----------------|-2---------------|-----------------|
|---4-4-4-4-4---4-|-4-4-4-4-4-4-4-4-|---4-4-4-4-4---4-|-2-------3-------|


|-----------------|-----------------|-------------------------|------------------|
|-----------------|-----------------|-------------------------|------------------|
|-2---------------|-----------------|-------------------------|------------------|
|---4-4-4-4-4---4|-3--2--1-1-1-1/|-16-16-16-16-16-16-16-16-|-16------3-4-5---|


|-----------------|-----------------|-----------------|-----------------|
|-----------------|-----------------|-----------------|-----------------|
|-----------------|-----------------|-----------------|-----------------|
|-3------0-0-0-0-|-0-0-0-0-3-4-5-0-|-3------0-0-0-0-|-0-0-0-0-3-4-5-0-|


|-----------------|-----------------|-----------------|-----------------|
|-----------------|-----------------|-----------------|-----------------|
|-----------------|-----------------|-----------------|-----------------|
|-3------0-0-0-0-|-0-0-0-0-3-4-5-0-|-3------0-0-0-0-|-0-0-0-0-0-5-7-5-|

1.________________
|------------------|-----------------|-----------------|------------------|
|o-----------------|-----------------|-----------------|-----------------o|
|o-----------------|-----------------|-----------------|-----------------o|
|--3-----3---3---3-|-5-----5---5---0-|-3------0-0-0-0-|-0-0-0-0-0-5-7-5--|

2._______________
|-----------------|-----------------|-----------------|-----------------|
|-----------------|-----------------|-----------------|-----------------|
|-----------------|-----------------|-----------------|-3-----3---3-3-3-|
|-0-0-0-0-0-3-5-0-|-3-----3---3-3-3-|-5-----5---5-5-5-|-----------------|


|-----------------|-----------------|-----------------|-----------------|-----------------|
|-----------------|-----------------|-----------------|-----------------|-----------------|
|-5-5-5-5-5-5-5-2-|-----------------|-----------------|-----------------|-----------------|
|-----------------|-3-3-3-3-3-3-3-3-|-5-5-5-5-5-5-5-0-|-1-1-1---1-1-1-2-|-3---------------|


|-----------------|-----------------|-----------------|-----------------|
|-----------------|-----------------|-----------------|-----------------|
|-0---------------|-----------------|-0---------------|-----------------|
|---2-----0-2-----|-2-2---2-2-2-2-2-|---2-----0-2-----|-0-------1-------|


|-----------------|-----------------|-----------------|-----------------|
|-----------------|-----------------|-----------------|-----------------|
|-0---------------|-----------------|-0---------------|-----------------|
|---2-----0-2-----|-2-2---2-2-2-2-2-|---2-----0-2-----|-0-------1-------|


|-----------------|-----------------|-----------------|-----------------|
|-----------------|-----------------|-----------------|-----------------|
|-2---------------|-----------------|-2---------------|-----------------|
|---4-4-4-4-4---4-|-4-4-4-4-4-4-4-4-|---4-4-4-4-4---4-|-2-------3-------|


|-----------------|-----------------|-------------------------|--------------------|
|-----------------|-----------------|-------------------------|--------------------|
|-2---------------|-----------------|-------------------------|--------------------|
|---4-4--2-4----|-3--2--1-1-1-1/|-16-16-16-16-16-16-16-16-|-16-16-14--3-4-5---|

4x
|------------------|-----------------|-----------------|------------------|
|o-----------------|-----------------|-----------------|-----------------o|
|o---------7-------|-7-------5-6-7---|---------7-------|-7-------5-6-7---o|
|--3------0-0-0-0-|-0-0-0-0-0-0-0-0-|-3------0-0-0-0-|-0-0-0-0-0-0-0-0--|


|-----------------|-----------------|-----------------|-----------------|
|-----------------|-----------------|-----------------|-----------------|
|-----------------|-----------------|-----------------|-----------------|
|-3---------------|-(3)-------------|-(3)-------------|-(3)-----3-4-5---|

7x
|------------------|-----------------|-----------------|------------------|
|o-----------------|-----------------|-----------------|-----------------o|
|o---------7-------|-7-------5-6-7---|---------7-------|-7-------5-6-7---o|
|--3------0-0-0-0-|-0-0-0-0-0-0-0-0-|-3------0-0-0-0-|-0-0-0-0-0-0-0-0--|


Tabbed By Russell Crockett



Права на тексты некоторых песен принадлежат компании ООО "Контент и право" Все тексты песен являются собственностью их автора.
Сайт создан в студии Далим
© 2004-2020 Akkords.NET