Музыка, аккорды для гитары, тексты песен и GTP самых популярных исполнителей на Akkords.NET
Подборки аккордов для гитары, табулатур, GTP на www.akkords.net
Поиск аккордов
 Аккорды и тексты песен Гражданская оборона — Новая патриотическая
GTP к тексту песен : Отсутствует
Я хочу, чтобы добавили GTP этой песне

Гражданская оборона — Новая патриотическая


RYTHM: < Am>
|--5--|
|--5--|
|--5--|
|--7--|
|--7--|
|--5--|

C5 D5
|-----| |-----|
|-----| |-----|
|--5--| |--7--|
|--5--| |--7--|
|--3--| |--5--|
|-----| |-----|

F5 E5
|-------| |-----|
|-------| |-----|
|--10---| |--9--|
|--10---| |--9--|
|---8---| |--7--|
|-------| |-----|

Am
|----5------5-------5------5------5----5-----5-----5
|----5------5-------5------5------5----5-----5-----5
|----5------5-------5------5------5----5-----5-----5
|----------------------------------------------------
|-----------------5-----7------------8-----7---------
|-5------8----------------------5---------------5----

RYTHM
Эх, дороги, пыль да туман,
Холода, тревоги до степной бурьян.
Врагам диктатуры - пролетарский пиздец
И даже если пуля - дура, то штык - молодец.

C5 D5
Тем, кто много замечает мы выкалываем зенки,
F5 E5
А тех, кто нам мешает мы ставим к стенке
RYTHM
Ведь пылающей тропой мы идём к коммунизму!

У всех нас лишь одна материальная природа
Религия есть опиум для нашего народа
Нетленная душа, бля, вредоносный атавизм
Мы распнём Христа по-новой, это наш атеизм.

Порядок в нашем мире будет правильней и проще
Мы окутаем всю Землю небесами нашей мощи.
Ведь пылающей тропой мы идём к коммунизму!

Нам не страшны Алма-Ата и события в Польше:
Ведь геройских патриотов с каждым днём всё больше
А для контры для матёрой вроде Леха Валенсы
Мы по-новому откроем Бухенвальд и Освенцим.

На всяких анархистах проводить эксперименты
На всё у нас имеются стальные аргументы.
Ведь пылающей тропой мы идём к коммунизму!

Права на тексты некоторых песен принадлежат компании ООО "Контент и право" Все тексты песен являются собственностью их автора.
Сайт создан в студии Далим
© 2004-2020 Akkords.NET