Музыка, аккорды для гитары, тексты песен и GTP самых популярных исполнителей на Akkords.NET
Подборки аккордов для гитары, табулатур, GTP на www.akkords.net
Поиск аккордов
 Аккорды и тексты песен Metallica — Ain't my bitch
GTP к тексту песен : Отсутствует
Я хочу, чтобы добавили GTP этой песне

Metallica — Ain't my bitch

Opening Riff Main Riff (riff 1)
e:--------------------------------------------------------------------|
B:--------------------------------------------------------------------|
G:--------------------------------------------------------------------|
D:-----------------------------------------------------5--------------|
A:--5--7-----5--------5--6--7--7--7--7----5--7--7--7------7--7--5--7--|
E:--0--0--0--3--------0--0--0--0--0--0----0--0--0--0---------0--0--0--|
pm
end of Riff 1 Fill 1 (play 3 times)|then play this |
e:----------------------------------------------------|---------------|
B:-----------------------------------------------1/4--|---------------|
G:------------------------------------------------^---|---------------|
D:------------------------------------5-----7-----5---|--------5-----5|
A:-7--7--7----5--7-----5--------5--7-----7-----7-----7|--5--7-----7---|
E:-0--0--0----0--0--0--3------------------------------|---------------|
pm
Riff 2
e:--------------------------------------------------------------------|
B:--------------------------------------------------------------------|
G:----------------------------------5---------------------------------|
D:---5--6--7--7--7--7---7--5--7--7----7---7--5--7--7--7--7---5--7-----|
A:---0--0--0--0--0--0---0--0--0--0----0---0--0--0--0--0--0---0--0--0-5|
E:----------------------------------------------------------------pm-3|

e:--------------------------------------------------------------------|
B:--------------------------------------------------------------------|
G:--------------------------------------------------------------------|
D:--2-----------------------------------------------------------------|
A:--2----------------------------------2-2-2-2-2-2-2-2-2-2-2-2-2-2-2-2|
E:--0----------------------------------0-0-0-0-0-0-0-0-0-0-0-0-0-0-0-0|
You've arrived,but now it's time to kiss your ass goodbye!

Chorus Riff
e:-------------------------------------------------------------------0----0|
B:-----------------------------------------------------------------0----0--|
G:--4--2--------------------------------------------------------4----2-----|
D:--4--2--5-----------------------------------------------------4----2-----|
A:--2--0--5---5--4--3-------------------------------------------2----0-----|
E:--------3---3--2--1--0000-3p000-00-3p000-3p000-00-3p000-3p0--------------|
pm....................................
... ain't my bitch! Solo's rhythm part

e:----0-----------|---------------------------------------|----------------|
B:--0-------------|---------------------------------------|----------------|
G:----------------|----------------------2-----4-----2----|-------2-----2--|
D:5-------------2-|----------------2-----2-----4-----2--4-|-2-----2-----2--|
A:5----5--4--3--2-|----------------2--4-----4-----4-----4-|-2--4-----4-----|
E:3----3--2--1--0-|---------------------------------------|----------------|
pm...... repeat this part 3 times then this

Now change all the 2s to 4s and 4s to 6s for the rythm part of the solo.

Solo:w/slide on pinky (Transcribed by:Jeff Jacobson)
|--------------------------------------------------------------------------|
|-------------------~~~~~-----------------11--(11)---(11)-/11--12--13--/14|
|---/11---119------11----------(11)9/11-----(11)---(11)-----------------|
|---/11---------11---------------------------------------------------------|
|--------------------------------------------------------------------------|
|--------------------------------------------------------------------------|

|------------14-----------14----------14-----------14----------14----------|
|---1412/14----1412/14-----1412/14-----1412/14----1412/14----1412/14-|
|--------------------------------------------------------------------------|
|--------------------------------------------------------------------------|
|--------------------------------------------------------------------------|
|--------------------------------------------------------------------------|
~~~~~ ~~~ ~~~~ ~~~~ ~~~ ~~~ ~~
|---14----14/17----(17)---------16---------16-----------16-----16-----/19-|
|---------14/----------------/16----16----------16----16----16-----16-----|
|--------------------------------------------------------------------------|
|--------------------------------------------------------------------------|
|--------------------------------------------------------------------------|
|--------------------------------------------------------------------------|
~~~~
|--(19)---------~~~~---------------------------------------11/14----(14)-|
|---19---------/12----(12)-----(12)--/75---97---1211------------------|
|---------/9--------------------------------------------------------------|
|--------------------------------------------------------------------------|
|--------------------------------------------------------------------------|
|--------------------------------------------------------------------------|
~~~~~~~~~
|----------------------11/14--14/19---/19--(19)-----------/19-/12------|
|---/75---97---1211-------------------------------------------------/12|
|--------------------------------------------------------------------------|
|--------------------------------------------------------------------------|
|--------------------------------------------------------------------------|
|--------------------------------------------------------------------------|


|-------------------------------------------|
|-7--(7)/9--------(9)-------(9)------(9)----|
|-7--(7)/9--------(9)-------(9)------(9)----|
|-------------------------------------------|
|-------------------------------------------|
|-------------------------------------------|

Extra Riff:
|--------------------------------------------------------------------------|
|----------------1/2--------------Full-------------------------------------|
------------------^----------------^-----^-------------------------------~~|
|-------5----7----5----------5--7--7--7--5---------5---7---5---------5---5-|
|-5--7----7----7----7--5--7----------------7--5--7---7---7---7--5--7---7---|
|--------------------------------------------------------------------------|

Ending Riff:Guitar1: Guitar2:
|-----------------------|---------------------------|
|.---------------------.|.-------------------------.|
|--4------2-------------|---------------------------|
|--4------2------5----2-|--/9--97----75----52--2/|
|.-2------0------5----2.|.-------------------------.|
|----------------3----0-|---------------------------|


Ending Riff:
|--------------------------------------------------------------------------|
|--------------------------------------------------------------------------|
|--------------------------------------------------------------------------|
|---5-------5--5--4--3--2--5--4--3--2--5--4--3---2--5--4--3----------------|
|---5-------5--5--4--3--2--5--4--3--2--5--4--3---2--5--4--3----------------|
|---3-------3--3--2--1--0--3--2--1--0--3--2--1---0--3--2--1----------------|


(Repeat Beginning Riff at end)


Well that's pretty much the whole song.

AIN'T MY BITCH
(Hetfield/Ulrich)

Out of my way
Out of my day
Out of your mind and into mine
It's no more
It's not born
Into your step but out of time

It's strong
What's wrong
I've already heard this song before
You're right but now it's time to kiss your ass good-bye

Dragging me down
While you were round
So useless
It ain't my fault
It ain't my call
It ain't my bitch
Ain't my bitch

Down on the sun
Down on your fun
Down and out where the hell you've been
Damn it all down
Damn it unbound
Damn it all down ta hell again

Stand tall
They fall
Never even meant it all before
You're right but now it's time to kiss your ass good-bye

Dragging me down
While you were round
So useless
It ain't my fault
It ain't my call
It ain't my bitch

Out of my way

Out of my way
Out of my day
Out of your mind and into mine
It's no more
It's not born
Into your step but out of time

It's strong
What's wrong
I've already heard this song before
You're right but now it's time to kiss your ass good-bye
And now it's time to kiss your ass good-bye

Dragging me down
While you were round
So useless
It ain't my fault
It ain't my call
It ain't my bitch

No way but down
While you were round
No foolin'
It ain't my smile
It ain't my style
It ain't my bitch

Ain't mine
Ain't mine
Your kind
Your stepin' out of time

Dragging me down
While you were round
No foolin'
It ain't my fault
It ain't my call
It ain't my bitch
Ain't my

Прислал : Волковский
Права на тексты некоторых песен принадлежат компании ООО "Контент и право" Все тексты песен являются собственностью их автора.
Сайт создан в студии Далим
© 2004-2020 Akkords.NET