Музыка, аккорды для гитары, тексты песен и GTP самых популярных исполнителей на Akkords.NET
Подборки аккордов для гитары, табулатур, GTP на www.akkords.net
Поиск аккордов
 Аккорды и тексты песен Metallica — I Disappear
GTP к тексту песен : Отсутствует
Я хочу, чтобы добавили GTP этой песне

Metallica — I Disappear

Most of this came from the other dude's but this was made using the method we
call the right way.

tabbed by: Matt Smith

TAB LEGEND
h - hammer on
p - pull off
b - bend string up
r - release bend
/ - slide up
\ - slide down
v - vibrato (sometimes written as ~)
t - tap (with strumming hand)
x - muted, struck string

All guitars tuned down 1/2 step

Riff A1 (Gtr. 1) Repeat 8 times (I think)
E|--------------------------------------|
B|*--------5b-r---------------5b-------*|
G|--------------------------------------|
D|--2---------------2--2-------------2--|
A|*-2---------------2--2-------------2-*|
E|--0---------------0--0-------------0--|


Riff A2 (Gtr. 2) Repeat 4 times After fourth time (leading into verse)

E|----------------------------------| |------------|
B|*--------------------------------*| |------------|
G|----------------------------------| |------------|
D|--2-----------------2-------------| |-5-----5----|
A|*-2----2b-----------2----2b------*| |-5-----5----|
E|--0-------3--3------0------3--3---| |-3-----3----|





Verse Riff twice before riff c and once after riff c
Eb|------------------------------------------------------------------------|
Bb|*----------------------------------------------------------------------*|
Gb|------------------------------------------------------------------------|
Db|--2-------2--2------2------2--2-------2------2--2------2-----5--5-------|
Ab|*-2-------2--2------2------2--2-------2------2--2------2-----5--5------*|
Eb|--0-------0--0------0------0--0-------0------0--0------0-----3--3-------|


Riff C after 2nd time
Db|--5-4----7---2----|
Ab|*-5-4----7---2----|
Eb|--3-2----5---0----|


Riff D Leads from Pre-Chorus to Chorus
Ab|---5---------4------------2----------|
Eb|---3---------2------------0----------|




Chorus
e|--15~14~------------15~14~-------12~-|
B|--------15~~--------------15~~-------|
G|------------14~---------------14~----|
D|-------------------------------------|
A|-------------------------------------|
E|---------------12~~~-----------------|



Solo Part. It's not accurate, but it's a start. Repeat once
E|--------------------------------------------------------------------------
B|*-------12------------------------12--12--12--------------------12--12----
G|--------12----------------12b-----12--12--12-------------12b----12--12----
D|---------------/12---14------------------------/12--14--------------------
A|*-------------------------------------------------------------------------
E|---0---------------------------0------------------------------0-----------



--------------------------------------------------------------------------
-12---------------------12--12--12----------------------------------------
-12-------------12b-----12--12--12---------------12---14p12----14p12------
-----/12---14-------------------------/12---14--------------14-------14---
--------------------------------------------------------------------------
---------------------0----------------------------------------------------


--------------------------------|
-------------------------------*|
-14p12----14p12----/16p14p12----|
-------14-------14--------------|
-------------------------------*|
--------------------------------|


Riff E (The *really* cool part)
D|-2---------------------2----------------------2--------------------2-----|
A|-2------------5---5----2------------5---5-----2-----------5---5----2-----|
E|-0----3b-0----3---3----0----3b-0----3---3-----0----3b-0---3---3----0-----|


D|---------------------|
A|---------5--4--3-----|
E|-3b-0----3--2--1-----|

Права на тексты некоторых песен принадлежат компании ООО "Контент и право" Все тексты песен являются собственностью их автора.
Сайт создан в студии Далим
© 2004-2020 Akkords.NET