Музыка, аккорды для гитары, тексты песен и GTP самых популярных исполнителей на Akkords.NET
Подборки аккордов для гитары, табулатур, GTP на www.akkords.net
Поиск аккордов
 Аккорды и тексты песен Классические — Isaac Albeniz. "Leyenda"
GTP к тексту песен : Отсутствует
Я хочу, чтобы добавили GTP этой песне

Классические — Isaac Albeniz. "Leyenda"

Мелодия очень красиво ведется басом.
Композиция делиться на две части: легкая и сложная.

Часть первая (легкая):
обычно ёё именно и играют

E||----------------------------|----------------------------|
B||----0---0----0---0---0----0-|----0---0----0---0---0----0-|
G||----------------------------|----------------------------|
D||------9---10---7---9--------|------9---10---7---9--------|
A||--7--------------------10---|--7--------------------10---|
E||----------------------------|----------------------------|


----------------------------|----------------------------|
----0---0----0---0---0----0-|----0---0----0---0---0----0-|
----------------------------|----------------------------|
------9---10---7---9--------|--7------------7------------|
--7--------------------10---|------9---10-------9---10---|
----------------------------|----------------------------|


----------------------------|----------------------------|
----0---0----0---0---0----0-|----0---0----0---0---0----0-|
----------------------------|----------------------------|
------9---10---7---9--------|------9---10---7---9--------|
--7--------------------10---|--7--------------------10---|
----------------------------|----------------------------|


----------------------------|----------------------------|
----0---0----0---0---0----0-|----0---0----0---0----0---0-|
----------------------------|----------------------------|
------9---10---7---9--------|--7-------------------------|
--7--------------------10---|------9---10---7------------|
----------------------------|-------------------10---8---|


---------------------------|---------------------------|
----0---0----0---0---0---0-|----0---0----0---0---0---0-|
---------------------------|---------------------------|
------9---10---7---9-------|------9---10---7---9-------|
-----------------------9---|-----------------------9---|
--7------------------------|--7------------------------|


---------------------------|----------------------------|
----0---0---0---0----0---0-|----0----0---0---0----0---0-|
-----------------------7---|----------------------------|
----------7---9---10-------|--9---10---7---9------------|
------9--------------------|-------------------10---9---|
--7------------------------|----------------------------|


---------------------------|---------------------------|
----0---0----0---0---0---0-|----0---0----0---0---0---0-|
---------------------------|---------------------------|
------9---10---7---9-------|------9---10---7---9-------|
-----------------------9---|-----------------------9---|
--7------------------------|--7------------------------|


---------------------------|----------------------------|
----0---0---0----0---0---0-|-----0---0---0----0---0---0-|
-------------------7-------|----------------------------|
------7---9---10-------9---|--10---7---9--------7-------|
---------------------------|---------------10-------9---|
--7------------------------|----------------------------|

Часть вторая (сложная по исполнению, хотя для кого как :)

------7-----7-----7-----7-----7-----7-|------7-----7-----7-----7-----7-----7-|
----0-----0-----0-----0-----0-----0---|----0-----0-----0-----0-----0-----0---|
--------4-----5-----------4-----------|--------4-----5-----------4-----------|
--------------------7-----------5-----|--------------------7-----------5-----|
--7-----------------------------------|--7-----------------------------------|
--------------------------------------|--------------------------------------|


------7-----7-----7-----7-----7-----7-|------7-----7-----7-----7-----7-----7-|
----0-----0-----0-----0-----0-----0---|----0-----0-----0-----0-----0-----0---|
--------4-----5-----------4-----------|--------------0-----------------------|
--------------------7-----------5-----|--7-----4-----------7-----4-----5-----|
--7-----------------------------------|--------------------------------------|
--------------------------------------|--------------------------------------|

------7-----7-----7-----7-----7-----7-|------7-----7-----7-----7-----7-----7-|
----0-----0-----0-----0-----0-----0---|----0-----0-----0-----0-----0-----0---|
--------4-----5-----------4-----------|--------4-----5-----------4-----------|
--------------------7-----------5-----|--------------------7-----------5-----|
--7-----------------------------------|--7-----------------------------------|
--0-----------------------------------|--------------------------------------|


------7-----7-----7-----7-----7-----7-|------7-----7-----7-----7-----7-----7-|
----0-----0-----0-----0-----0-----0---|----0-----0-----0-----0-----0-----0---|
--------4-----5-----------4-----------|--------------------------------------|
--------------------7-----------5-----|--7-----4-----5-----------------------|
--7-----------------------------------|--------------------7-----5-----------|
--------------------------------------|--------------------------------8-----|

Права на тексты некоторых песен принадлежат компании ООО "Контент и право" Все тексты песен являются собственностью их автора.
Сайт создан в студии Далим
© 2004-2020 Akkords.NET