Музыка, аккорды для гитары, тексты песен и GTP самых популярных исполнителей на Akkords.NET
Подборки аккордов для гитары, табулатур, GTP на www.akkords.net
Поиск аккордов
 Аккорды и тексты песен Гражданская оборона — Общество
GTP к тексту песен : Отсутствует
Я хочу, чтобы добавили GTP этой песне

Гражданская оборона — Общество




Общество Память
Играйте с аккордами где надо:

|-----------
|-----------
|-----2-----
|-----2-----
|-----------
' style='color=#000066'>Em
|---1----
|-----2--
|-----2--
|--------
|--------' style='color=#000066'>Am
|-----------
|-----------
|-----2-----
|-----2-----
|-----------
' style='color=#000066'>Em
|-2--4-----
|-2--4-----
|-2--4-----
|-2--------
|-2--------' style='color=#000066'>H
-E-I-12-10-7-8-----7-7-I-
-B-I-----------7-8-----I-
|-----------
|-----------
|-----2-----
|-----2-----
|-----------
' style='color=#000066'>Em
|---1----
|-----2--
|-----2--
|--------
|--------' style='color=#000066'>Am
|-----------
|-----------
|-----2-----
|-----2-----
|-----------
' style='color=#000066'>Em
|-2--4-----
|-2--4-----
|-2--4-----
|-2--------
|-2--------' style='color=#000066'>H

|-----------
|-----------
|-----2-----
|-----2-----
|-----------
' style='color=#000066'>Em
|---1----
|-----2--
|-----2--
|--------
|--------' style='color=#000066'>Am
|-----------
|-----------
|-----2-----
|-----2-----
|-----------
' style='color=#000066'>Em
|-2--4-----
|-2--4-----
|-2--4-----
|-2--------
|-2--------' style='color=#000066'>H

|-----------
|-----------
|-----2-----
|-----2-----
|-----------
' style='color=#000066'>Em
|---1----
|-----2--
|-----2--
|--------
|--------' style='color=#000066'>Am
|-----------
|-----------
|-----2-----
|-----2-----
|-----------
' style='color=#000066'>Em
|-2--4-----
|-2--4-----
|-2--4-----
|-2--------
|-2--------' style='color=#000066'>H

|-----------
|-----------
|-----2-----
|-----2-----
|-----------
' style='color=#000066'>Em
|---1----
|-----2--
|-----2--
|--------
|--------' style='color=#000066'>Am
|-----------
|-----------
|-----2-----
|-----2-----
|-----------
' style='color=#000066'>Em
|-2--4-----
|-2--4-----
|-2--4-----
|-2--------
|-2--------' style='color=#000066'>H
|-----------
|-----------
|-----2-----
|-----2-----
|-----------
' style='color=#000066'>Em
|---1----
|-----2--
|-----2--
|--------
|--------' style='color=#000066'>Am
|-2--4-----
|-2--4-----
|-2--4-----
|-2--------
|-2--------' style='color=#000066'>H
|-----------
|-----------
|-----2-----
|-----2-----
|-----------
' style='color=#000066'>Em
Общество Память и красная власть
|-----------
|-----------
|-----2-----
|-----2-----
|-----------
' style='color=#000066'>Em
|---1----
|-----2--
|-----2--
|--------
|--------' style='color=#000066'>Am
|-2--4-----
|-2--4-----
|-2--4-----
|-2--------
|-2--------' style='color=#000066'>H
|-----------
|-----------
|-----2-----
|-----2-----
|-----------
' style='color=#000066'>Em
Выстрелил в спину и душу долой
G
|---1------
|----------
|-----2----
|-------3--
|-------3--' style='color=#000066'>C
|-----3----
|---2------
|----------
|----------
|----------' style='color=#000066'>D
|------3---
|----------
|----------
|----------
|----2-----
|------3---' style='color=#000066'>G
Каши кровавой медовая сласть
G
|---1----
|-----2--
|-----2--
|--------
|--------' style='color=#000066'>Am
|-2--4-----
|-2--4-----
|-2--4-----
|-2--------
|-2--------' style='color=#000066'>H
|-----------
|-----------
|-----2-----
|-----2-----
|-----------
' style='color=#000066'>Em
В мутный колодезь да вниз да головой

Общество Память - русский террор
Праведный палец нащупал курок
Щедро наточен народный топор
Завтра наступит безвременный срок

|-----------
|-----------
|-----2-----
|-----2-----
|-----------
' style='color=#000066'>Em
|---1----
|-----2--
|-----2--
|--------
|--------' style='color=#000066'>Am
|-----------
|-----------
|-----2-----
|-----2-----
|-----------
' style='color=#000066'>Em
|-2--4-----
|-2--4-----
|-2--4-----
|-2--------
|-2--------' style='color=#000066'>H + solo
|-----------
|-----------
|-----2-----
|-----2-----
|-----------
' style='color=#000066'>Em
|---1----
|-----2--
|-----2--
|--------
|--------' style='color=#000066'>Am
|-----------
|-----------
|-----2-----
|-----2-----
|-----------
' style='color=#000066'>Em
|-2--4-----
|-2--4-----
|-2--4-----
|-2--------
|-2--------' style='color=#000066'>H + solo
|-----------
|-----------
|-----2-----
|-----2-----
|-----------
' style='color=#000066'>Em
|---1----
|-----2--
|-----2--
|--------
|--------' style='color=#000066'>Am
|-----------
|-----------
|-----2-----
|-----2-----
|-----------
' style='color=#000066'>Em
|-2--4-----
|-2--4-----
|-2--4-----
|-2--------
|-2--------' style='color=#000066'>H + solo
|-----------
|-----------
|-----2-----
|-----2-----
|-----------
' style='color=#000066'>Em
|---1----
|-----2--
|-----2--
|--------
|--------' style='color=#000066'>Am
|-----------
|-----------
|-----2-----
|-----2-----
|-----------
' style='color=#000066'>Em
|-2--4-----
|-2--4-----
|-2--4-----
|-2--------
|-2--------' style='color=#000066'>H + solo

Шашка сверкнула - кому-то пиздец
Штык ковырнул ненавистную плоть
Общество Память - святой наш отец
Нас поведет раздирать и колоть

Вспыхнули раны рассветным лучом
Гордое племя, на битву вставай!
Мы призываем крестом и мечом:
Вешай жидов и Россию спасай!

|-----------
|-----------
|-----2-----
|-----2-----
|-----------
' style='color=#000066'>Em
|---1----
|-----2--
|-----2--
|--------
|--------' style='color=#000066'>Am
|-----------
|-----------
|-----2-----
|-----2-----
|-----------
' style='color=#000066'>Em
|-2--4-----
|-2--4-----
|-2--4-----
|-2--------
|-2--------' style='color=#000066'>H + solo
|-----------
|-----------
|-----2-----
|-----2-----
|-----------
' style='color=#000066'>Em
|---1----
|-----2--
|-----2--
|--------
|--------' style='color=#000066'>Am
|-----------
|-----------
|-----2-----
|-----2-----
|-----------
' style='color=#000066'>Em
|-2--4-----
|-2--4-----
|-2--4-----
|-2--------
|-2--------' style='color=#000066'>H + solo
|-----------
|-----------
|-----2-----
|-----2-----
|-----------
' style='color=#000066'>Em
|---1----
|-----2--
|-----2--
|--------
|--------' style='color=#000066'>Am
|-----------
|-----------
|-----2-----
|-----2-----
|-----------
' style='color=#000066'>Em
|-2--4-----
|-2--4-----
|-2--4-----
|-2--------
|-2--------' style='color=#000066'>H + solo
|-----------
|-----------
|-----2-----
|-----2-----
|-----------
' style='color=#000066'>Em
|---1----
|-----2--
|-----2--
|--------
|--------' style='color=#000066'>Am
|-----------
|-----------
|-----2-----
|-----2-----
|-----------
' style='color=#000066'>Em
|-2--4-----
|-2--4-----
|-2--4-----
|-2--------
|-2--------' style='color=#000066'>H + solo

Права на тексты некоторых песен принадлежат компании ООО "Контент и право" Все тексты песен являются собственностью их автора.
Сайт создан в студии Далим
© 2004-2020 Akkords.NET