Музыка, аккорды для гитары, тексты песен и GTP самых популярных исполнителей на Akkords.NET
Подборки аккордов для гитары, табулатур, GTP на www.akkords.net
Поиск аккордов
 Аккорды и тексты песен Гости из будущего — Прощай
GTP к тексту песен : Отсутствует
Я хочу, чтобы добавили GTP этой песне

Гости из будущего — Прощай

Подбор: DiAnno (cristal_planet@mail.ru)

(Riff_)
(Asus2) (G) (Asus2) (G)
Слишком мало снов осталось нам увидеть вместе,
Слишком мало слов мне по утрам приносит ветер.
Слишком много слез, чтобы забыть, уйти от боли,
Слишком много слез. Я отпущу себя на волю...
(Am) (C) (G)
Прощай, отпусти меня как птицу в небо.
Прощай, я открою мир, где никогда ты не был.
Прощай, отпусти меня как птицу в небо...

(Riff_)
Знаю, что душа моя уснет, я плен забуду.
Знаю, что приду, вернусь назад из ниоткуда.

Прощай, отпусти меня как птицу в небо.
Прощай, я открою мир, где никогда ты не был.
Прощай, отпусти меня как птицу в небо...
Прощай... Птицу в небо...

(F) (G)
Положи на плечи руки,
(Dm) (Am) (Am/G)
Ты почувствуешь там крылья,
(F) (G)
Посмотрю в глаза разлуке,
(Dm) (E)
Стану звездной пылью.... и прощай...

....Отпусти меня как птицу в небо.
Прощай, я открою мир, где никогда ты не был.
Прощай, отпусти меня как птицу в небо...
Прощай... Птицу в небо...

Положи на плечи руки,
Ты почувствуешь там крылья,
Посмотрю в глаза разлуке,
Стану звездной пылью.... и прощай...

Положи на плечи руки,
Ты почувствуешь там крылья,
Посмотрю в глаза разлуке,
Стану звездной пылью.... и прощай...

Вернусь назад из ниоткуда...

Прощай...
(Riff_)
(Asus2) (G)
1|--7-x-7--7-x-7--7--3--3-x--|--7-x-7--7-x-7--7--3--3-x--|
2|--5-x-5--5-x-5-----0----x--|--5-x-5--5-x-5-----0----x--|
3|--5-x-5--5-x-5-----0----x--|--5-x-5--5-x-5-----0----x--|
4|---------------------------|---------------------------|
5|-0-(0)~------0-------------|-0-(0)~------0------------0|
6|-------------------3-(3)~--|-------------------3-(3)~--|

1|--7-x-7--7-x-7--7--3--3-x--|7-7-x-7--7-x-7--7--3--3-x--|
2|--5-x-5--5-x-5-----0----x--|5-5-x-5--5-x-5-----0----x--|
3|--5-x-5--5-x-5-----0----x--|5-5-x-5--5-x-5-----0----x--|
4|---------------------------|---------------------------|
5|-0-(0)~------0------------0|-------------0------------0|
6|-------------------3-(3)~--|-------------------3-(3)~--|
Обозначения (на случай, если опять захотят мне на мыло вопрос скинуть:)))
--x--.......труна глушиться
-(0)~-......струна звучит дальше

Дерзайте на здоровье...

P.S. Это сильнее меня до сих пор не слышал!)))

Права на тексты некоторых песен принадлежат компании ООО "Контент и право" Все тексты песен являются собственностью их автора.
Сайт создан в студии Далим
© 2004-2020 Akkords.NET