Музыка, аккорды для гитары, тексты песен и GTP самых популярных исполнителей на Akkords.NET
Подборки аккордов для гитары, табулатур, GTP на www.akkords.net
Поиск аккордов
 Аккорды и тексты песен Natalie Imbruglia — Torn
GTP к тексту песен : Отсутствует
Я хочу, чтобы добавили GTP этой песне

Natalie Imbruglia — Torn

Интро (рукой вниз по струнам)

Fm# Bm Fm# Cm#
1:-9---2--2---4--
2:-9---2--2---4--
3:-11--4--2---6--
4:-11--4--4---6--
5:-9---2--4---4--
6:-9---2--2---4--

Куплет (каким боем играется - послушайте песню)

Fm# Cm# Bm
1:-2---4---2--
2:-2---4---2--
3:-2---6---4--
4:-4---6---4--
5:-4---4---2--
6:-2---4---2--
Перед припевом


D# Cm# Am# Cm#
1:-6--4---6---4--
2:-6--4---6---4--
3:-8--6---6---6--
4:-8--6---8---6--
5:-6--4---8---4--
6:-6--4---6---4--
Припев
Fm# Cm7# D# Bm
1:-2---4---6---2--
2:-2---6---6---2--
3:-2---4---8---4--
4:-4---6---8---4--
5:-4---4---6---2--
6:-2---4---6---2--
Проигрыш

D# Fm# Cm#
1:-6--2--4--
2:-6--2--4--
3:-8--2--6--
4:-8--4--6--
5:-6--4--4--
6:-6--2--4--
почти в конце что-то типа соляка =)

2:------/14~~~16~11~~~
3:--11/-------------

Права на тексты некоторых песен принадлежат компании ООО "Контент и право" Все тексты песен являются собственностью их автора.
Сайт создан в студии Далим
© 2004-2024 Akkords.NET