Музыка, аккорды для гитары, тексты песен и GTP самых популярных исполнителей на Akkords.NET
Подборки аккордов для гитары, табулатур, GTP на www.akkords.net
Поиск аккордов
 Аккорды и тексты песен Modern Talking — Do You Wanna
GTP к тексту песен : Отсутствует
Я хочу, чтобы добавили GTP этой песне

Modern Talking — Do You Wanna

Tabs:

Intro (2 Times):

E--------------------------------------------------------------------------------
B--3----1----3----1----4----3----4----3---3---1---------3----1--1-----1--1--1---1
G--------------------------------------------------3---------------0-----------0-
D--------------------------------------------------------------------------------
A--------------------------------------------------------------------------------
E--------------------------------------------------------------------------------

Part 1 and 2:

E--------------------------------------------------------------------------------
B--3--3--3--3--1--3--1--3--4---4---------------4--4--4---3--3-1-1----------------
G---------------------------------1--1--0--1----------------------3--3--1--1-0-1-
D--------------------------------------------------------------------------------
A--------------------------------------------------------------------------------
E--------------------------------------------------------------------------------

Pre-chorus:

E--4--4--4--4--4--4--4---3--1--4---3--1-----1--3---------------------------------
B----------------------------------------4---------------------------1--4--3-----
G--------------------------------------------------0--1-1-1-1-1--1---------------
D--------------------------------------------------------------------------------
A--------------------------------------------------------------------------------
E--------------------------------------------------------------------------------

Chorus:
1.

E----------------------------------------------------------------------------------
B--3--3--3--1--3--3--3--4---4--4--4-3--4--4--4--3--3--3-1-----1--3--1-1-0-1--------
G----------------------------------------------------------3----------------1-1-0-1
D----------------------------------------------------------------------------------
A----------------------------------------------------------------------------------
E----------------------------------------------------------------------------------

2.

E--------------------------------------------------------------------------------
B--------------------------------------------------------------------------------
G-0-0-0-----0-0--0--1--1-1-0--1--1--1--1--1--0---1--3------------0-1-0-0---0-0--0
D--------3--------------------------------------------4-4-4-4--4---------4-----4-
A--------------------------------------------------------------------------------
E--------------------------------------------------------------------------------

Intro:

Part 1:
Cm Cm Cm Cm
I need your heartbeat, heartbeat, heartbeat
Fm Fm
Playing with my mind.
B
Oh I need you wrapped around me
Cm
Just like I be on a veil
Cm Cm Cm
But I am only lonely, lonely
Fm Fm
Holding on to you
B
Oh I need you back here witn me yeah
Eb
I think you want it too

Pre-chorus:
Fm
Now I feed you with a new emotion -
Cm
Heal you when you cry.
Fm Ab B
Iґll be your loving doctor of the night!

Chorus (twice, all together):
1.

Cm Cm
Do you wanna take me tonight?
Fm Fm
Do you wanna make me a night?
B B
Do you wanna, if you wanna,
Cm Cm
take what you need.

2.
Cm Fm
Do you wanna make me alright?
Fm Fm
Do you wanna heavenґs tonight?
B
Oh baby, do you wanna, if you wanna,
Eb Cm
take what you need.
Part 2:

I hear your heartbeat, heartbeat, heartbeat
Begging me for more.
Oh I need to hear that question like
A dancer needs a floor.

And now you only, only, only
Holding on to me
Oh, now tell me that youґre coming back
One word is all I need.

Pre-chorus:

Chorus (twice, all together):

Права на тексты некоторых песен принадлежат компании ООО "Контент и право" Все тексты песен являются собственностью их автора.
Сайт создан в студии Далим
© 2004-2020 Akkords.NET