Музыка, аккорды для гитары, тексты песен и GTP самых популярных исполнителей на Akkords.NET
Подборки аккордов для гитары, табулатур, GTP на www.akkords.net
Поиск аккордов
 Аккорды и тексты песен Moby — We Are All Made Of Stars
GTP к тексту песен : Отсутствует
Я хочу, чтобы добавили GTP этой песне

Moby — We Are All Made Of Stars

Ам Ем G D
1||--------------------|--------------------|--------------------|-2-------2--------2---||
2||-1--------1--1----1-|-0----0--0--------0-|-0----0--0--------0-|-3-------3------3-----||
3||-2------2----2----2-|-0----0--0------0---|-0----0--0------0---|-2-------2----2-------||
4||-2----2------2----2-|-2----2--2----2-----|-0----0--0----0-----|-0-------0--0---------||
5||-0--0--------0--0---|--------------------|--------------------|----------------------||
6||--------------------|-0--0----0--0-------|-3--3----3--3-------|----------------------||

main:

1||--------------------|-------------------|-------------------|-2-----2-----2--2--||
2||--1-----1-----1--1--|-0-----0-----0--0--|-0-----0-----0--0--|-3-----3-----3--3--||
3||--2-----2-----2--2--|-0-----0-----0--0--|-0-----0-----0--0--|-2-----2-----2--2--||
4||--2-----2-----2--2--|-2-----2-----2--2--|-0-----0-----0--0--|-0--0-----0-----0--||
5||--0--0-----0-----0--|-------------------|-------------------|-------------------||
6||--------------------|-0--0-----0-----0--|-3--3-----3-----3--|-------------------||

Подобрал Семенов Олег

Права на тексты некоторых песен принадлежат компании ООО "Контент и право" Все тексты песен являются собственностью их автора.
Сайт создан в студии Далим
© 2004-2020 Akkords.NET