Музыка, аккорды для гитары, тексты песен и GTP самых популярных исполнителей на Akkords.NET
Подборки аккордов для гитары, табулатур, GTP на www.akkords.net
Поиск аккордов
 Аккорды и тексты песен Metallica — Through The Never
GTP к тексту песен : Отсутствует
Я хочу, чтобы добавили GTP этой песне

Metallica — Through The Never

Through the Never
------- --- -----
Bass tab
Metallica
from the album: Metallica

188 bmp
(4/4)

Intro (guitar)
(12)
||---------|----------||
||----r----|----------||
||---------|----------||
||---------|--------3-||

/--Bass fig.1--------
||------------------|-----------------|---------|---------------|
||o-----------------|-----------------|----%----|---------------|
||o-----4-------3---|-----4-------3---|---------|-----4---------|
||--0-2---2-0-2---2-|-0-2---2-0-2---2-|---------|-0-2---2-0-2-3-|

|-----------------|-----------------|-------|
|-----------------|-----------------|---%---|
|-----4-------3---|-----4-------3---|-------|
|-0-2---2-0-2---2-|-0-2---2-0-2---2-|-------|
______________
|1.
|-------------||
|------------o||
|------------o||
|-0-0-------3-||
______________
|2.
|--------|--------||
|--------|----r---||
|--------|--------||
|-0-0----|--------||


(Half time feel)
1st, 2nd verses
||-----------------|-----------------|----------------|-----------------|
||-----------------|-----------------|----------------|-------------0-2-|
||-----------------|-----------------|----------------|-0-1-0-----------|
||-0---0-0-0-0-0-0-|-0-0-0-0-0-0-0-0-|-0-5-----0-6----|-------3-1-0-----|

|-----------------|-----------------|-----------------|-----------------|
|-3-2-------------|-----------------|-----------------|-------------0-2-|
|-----------------|-----------------|-----------------|-0-1-0-----------|
|-----0-0-0-0-0-0-|-0-0-0-0-0-0-0-0-|-0-5------0-6----|-------3-1-0-----|

|-----------------|-----------------|-----------------|-----------------|
|-3-2-------------|-----------------|-----------------|-----------------|
|-----------------|---------7-5-----|-----------------|-----------5-7---|
|-----0-0-0-0-0-0-|-0-0-5-7-----7-5-|-0-0-0-0-0-0-0-0-|-0-0-0-5-7-----0-|

|-----------------|-----------------|-----------------|-----------------|
|-----------------|-----------------|-----------------|-----------------|
|-----------------|-----------5-7---|-----------------|-----------------|
|-0-0-0-0-0-0-0-0-|-0-0-0-5-7-----0-|-0-5------0-6----|-0-0-0-0-0-0-0-0-|

|-----------------|-----------------|-----------------|-----------------|
|-----------------|-----------------|--------%--------|-----------------|
|---------7-5-----|-----------------|-----------------|-----------------|
|-0-0-0-0-----7-5-|-3-3-3-3-3-3-3-3-|-----------------|-2-2-2-2-2-2-2-2-|

|-----------------|-----------------|-----------------|
|-----------------|-----------------|-------------0-2-|
|-----------------|-----------------|-0-1-0-----------|
|-2-2-2-2-2-2-2-2-|-0-5------0-6----|-------3-1-0-----|

Play Bass. fig.1 (4 times)

Chorus
Bass fig.2 (end bass fig.2)---
||-----------------|-------|-------|-------|-----------------|--------------|
||-----------------|---%---|---%---|---%---|-----------------|--------------|
||-----------------|-------|-------|-------|-----------------|--------------|
||-0-2-2-2-0-2-2-2-|-------|-------|-------|-0-2-----0-2-----|-0-2-----0-2--|
H H

|----------||
|----------||
|----------||
|-----3----||

||------------------|-----------------|---------|
||o-----------------|-----------------|----%----|
||o-----4-------3---|-----4-------3---|---------|
||--0-2---2-0-2---2-|-0-2---2-0-2---2-|---------|
_______________
|1.
|---------------||
|--------------o||
|-----4--------o||
|-0-2---2-0-2-3-||
_______________
|2.
|------------|-----------------||
|------------|-------------0-2-||
|------------|-0-1-0-----------||
|-0-0--------|-------3-1-0-----||

|--------------|-2-3-2-0---------|--------------||
|--------------|---------3-2-0---|--------------||
|--------------|-----------------|--------------||
|-0-2-----0-2--|-----------------|-0-1--2--3--4-||


Guitar solo

||------------------|-------|-------|-----------------|
||o-0-2-2-2-0-2-2-2-|---%---|---%---|-0-2-2-2-0-2-3---|
||o-----------------|-------|-------|-----------------|
||------------------|-------|-------|-----------------|

|-----------------|-------|-------|
|-----------------|---%---|---%---|
|-0-2-2-2-0-2-2-2-|-------|-------|
|-----------------|-------|-------|
____________________
|1.
|------------------||
|-----------------o||
|-0-0---0---3---3-o||
|------------------||
___________________
|2.
|-----------------||
|-----------------||
|-----------3---3-||
|-0-0---0---------||

|-----------------|-------|-------|-----------------------||
|-----------------|---%---|---%---|-----------------------||
|-----------------|-------|-------|/12-12-12-12-12-12-3---||
|-3-5-5-5-3-5-5-5-|-------|-------|-----------------------||

|-----------------|-------|-------|-------|-------------|-------------||
|-----------------|---%---|---%---|---%---|-------------|-------------||
|-----------------|-------|-------|-------|-------------|-------------||
|-0-2-2-2-0-2-2-2-|-------|-------|-------|-0-2----0-2--|-0-2----0-2--||

|-------|-------|-------|--------|
|---r---|---r---|-19---|-(7)---|
|-------|-------|-------|--------|
|-------|-------|-------|--------|

Bass fig.3------------------------- (play 16 times)
||------------------|-----------------||
||o-----------------|----------------o||
||o-----------------|-1--------------o||
||--0---0-0-3---0-0-|-----3---3---3---||

|----------|----------|----------|-----------||
|----------|----------|----------|-----------||
|----------|----------|----------|-----------||
|-0--------|-(0)------|-(0)------|-(0)-----3-||


Play bass fig.1 (4 times)

||-----------------|-------|--------------|-------|--------||
||-----------------|---%---|--------------|---%---|--------||
||-----------------|-------|--------------|-------|--------||
||-0-2-2-2-0-2-2-2-|-------|-0-2-----0-2--|-------|------3-||

||-----------------|-----------------|-------|-----------||
||-----------------|-----------------|---%---|-----------||
||-----4-------3---|-----4-------3---|-------|-----------||
||-0-2---2-0-2---2-|-0-2---2-0-2---2-|-------|-3-3-------||


Права на тексты некоторых песен принадлежат компании ООО "Контент и право" Все тексты песен являются собственностью их автора.
Сайт создан в студии Далим
© 2004-2020 Akkords.NET