Музыка, аккорды для гитары, тексты песен и GTP самых популярных исполнителей на Akkords.NET
Подборки аккордов для гитары, табулатур, GTP на www.akkords.net
Поиск аккордов
 Аккорды и тексты песен Metallica — St. Anger
GTP к тексту песен : Отсутствует
Я хочу, чтобы добавили GTP этой песне

Metallica — St. Anger

E---------------------------------
B---------------------------------
G---------------------------------
D---------------------------------
A--1-3-3-3-3-3-3-3-3----1-1-1-1---
E---------------------------------


Verse:

Сm Bb G# G
St. Anger round my neck
St. Anger round my neck
He never gets respect
St. Anger round my neck

(Its rushing out, Its rushing out)
St. Anger round my neck
(Itґs rushing out, Itґs rushing out)
He never gets respect
(Itґs rushing out, Itґs rushing out)
St. Anger round my neck
(Itґs rushing out, Itґs rushing out)
He never gets respect
[Chorus:]
Fuck it all and no regrets
I hit the lights on these dark sets
I need a voice to let myself
To let myself go free
Fuck it all and fuck regrets
I hit the lights on these dark sets
Medallion noose I hang myself
St. Anger round my neck

I feel my world shake
I canґt look away
Hard to see clear
Is it me
Or is it fear?

Iґm madly in anger with you [2x]

St. Anger round my neck
St. Anger round my neck
He never gets respect
St. Anger round my neck

(Its rushing out, Its rushing out)
St. Anger round my neck
(Itґs rushing out, Itґs rushing out)
He never gets respect
(Itґs rushing out, Itґs rushing out)
St. Anger round my neck
(Itґs rushing out, Itґs rushing out)
He never gets respect
[Chorus]

I feel my world shake
I canґt look away
Hard to see clear
Is it me
Or is it fear?

Iґm madly in anger with you [4x]

I want my anger to be healthy
I want my anger just for me
I need my anger not to control
I want my anger to be me

I need set my anger free
I need to set my anger free
Set it free!

[Chorus]

I feel my world shake
I canґt look away
Hard to see clear
Is it me
Or is it fear?

Iґm madly in anger with you [4x]
Chorus Fifth time
E---------------------------------------------|--------------------------
B---------------------------------------------|--------------------------
G---------------------------------------------|--------------------------
D-1010101010101010-8-8-8-8-6-6-5-5------------|10-------------8----6--5--
A-1010101010101010-8-8-8-8-6-6-5-5------------|10-------------8----6--5--
E--8-8-8-8-8-8-8-8-6-6-6-6-4-4-3-3------------|-8----8-8--8-8-6----4--3--



Verse 2
E---------------------------
B---------------------------
G---------------------------
D-10------------------------
A-10------------------------
E--8----8-8--8-8--8-8--8-8--
Б*я, все права защищены на**й. Претензии,вопросы и отзывы идут туда же.

Права на тексты некоторых песен принадлежат компании ООО "Контент и право" Все тексты песен являются собственностью их автора.
Сайт создан в студии Далим
© 2004-2020 Akkords.NET