Музыка, аккорды для гитары, тексты песен и GTP самых популярных исполнителей на Akkords.NET
Подборки аккордов для гитары, табулатур, GTP на www.akkords.net
Поиск аккордов
 Аккорды и тексты песен Metallica — So What
GTP к тексту песен : Отсутствует
Я хочу, чтобы добавили GTP этой песне

Metallica — So What

From: "Rafael Dylong [April `95]"


-- Metallica --

" ** So What ** "

Transcription by
Rafael Dylong

So fucking
what! Gtr1
||------------||-----------|-----------|---------|-----------|
||------------||-----------|-----------|---------|-----------|
||------------||-----------|-----------|---------|-----------|
||------------||-57-7-7-7-|-57-7-7-7-|-5-7-5-7-|-57-7-7-7-|
||------------||-57-7-7-7-|-57-7-7-7-|-5-7-5-7-|-57-7-7-7-|
||------------||-35-5-5-5-|-35-5-5-5-|-3-5-3-5-|-35-5-5-5-|

Gtr1&2
|-----------|-----------|---------|-----------|
|-----------|-----------|---------|-----------|
|-----------|-----------|---------|-----------|
|-57-7-7-7-|-57-7-7-7-|-5-7-5-7-|-57-7-7-7-|
|-57-7-7-7-|-57-7-7-7-|-5-7-5-7-|-57-7-7-7-|
|-35-5-5-5-|-35-5-5-5-|-3-5-3-5-|-35-5-5-5-|


|----------|----------|----------|----------|
|----------|----------|----------|----------|
|-57777777|-77777777-|-77777777-|-77777777-| |
|-57777777|-77777777-|-77777777-|-77777777-| |
|-35555555|-55555555-|-55555555-|-55555555-| |
|----------|----------|----------|----------| |
|
|
|-----------|-----------|---------|-----------| |
|-----------|-----------|---------|-----------| |
|-----------|-----------|---------|-----------| |
|-57-7-7-7-|-57-7-7-7-|-5-7-5-7-|-57-7-7-7-| |
|-57-7-7-7-|-57-7-7-7-|-5-7-5-7-|-57-7-7-7-| |
|-35-5-5-5-|-35-5-5-5-|-3-5-3-5-|-35-5-5-5-| |
|
|
|----------|----------|----------|----------| |
|----------|----------|----------|----------| |
|-57777777|-77777777-|-77777777-|-77777777-| |
|-57777777|-77777777-|-77777777-|-77777777-| |
|-35555555|-55555555-|-55555555-|-55555555-| |
|----------|----------|----------|----------| 3 times

> 1&2&3 Verse
|-----------|-----------|---------|-----------| /
|-----------|-----------|---------|-----------| /
|-----------|-----------|---------|-----------| |
|-57-7-7-7-|-57-7-7-7-|-5-7-5-7-|-57-7-7-7-| |
|-57-7-7-7-|-57-7-7-7-|-5-7-5-7-|-57-7-7-7-| |
|-35-5-5-5-|-35-5-5-5-|-3-5-3-5-|-35-5-5-5-| |
|
Gtr1 |
|----------|----------|-----------|-----------| |
|----------|----------|-----------|-----------| |
|----------|-----2----|-----------|-----------| |
|-----2----|---2---2--|-57-7-7-7-|-57-7-7-7-| |
|---2---2--|-1--------|-57-7-7-7-|-57-7-7-7-| |
|-1--------|----------|-35-5-5-5-|-35-5-5-5-| |
| | | | | |
|Gtr2 | | | | |
|----------|-6--------|-----------|-----------| |
|-----6----|---6------|-----------|-----------| |
|---5---5--|-----3----|-----------|-----------| |
|-3--------|-------3--|-----------|-----------| |
|----------|----------|-----------|-----------| |
|----------|----------|-----------|-----------| |
|
|
Gtr1 |
|----------|----------|-----------|-----------| |
|----------|----------|-----------|-----------| |
|----------|-----2----|-----------|-----------| |
|-----2----|---2---2--|-57-7-7-7-|-57-7-7-7-| |
|---2---2--|-1--------|-57-7-7-7-|-57-7-7-7-| |
|-1--------|----------|-35-5-5-5-|-35-5-5-5-| |
| | | | | |
|Gtr2 | | | | |
|----------|-6--------|-----------|-----------| |
|-----6----|---6------|-----------|-----------| |
|---5---5--|-----3----|-----------|-----------| |
|-3--------|-------3--|-----------|-----------| |
|----------|----------|-----------|-----------| |
|----------|----------|-----------|-----------| |
|
|---------|-----------| |
|---------|-----------| |
|---------|-----------| |
|-5-7-5-7-|-57-7-7-7-| |
|-5-7-5-7-|-57-7-7-7-| /
|-3-5-3-5-|-35-5-5-5-| /

Gtr1
|----------|----------|----------|----------|
|----------|----------|----------|----------|
|-57777777|-77777777-|-77777777-|-77777777-| |
|-57777777|-77777777-|-77777777-|-77777777-| |
|-35555555|-55555555-|-55555555-|-55555555-| |
|----------|----------|----------|----------| |
|
|
|-----------|-----------|---------|-----------| |
|-----------|-----------|---------|-----------| |
|-----------|-----------|---------|-----------| |
|-57-7-7-7-|-57-7-7-7-|-5-7-5-7-|-57-7-7-7-| |
|-57-7-7-7-|-57-7-7-7-|-5-7-5-7-|-57-7-7-7-| |
|-35-5-5-5-|-35-5-5-5-|-3-5-3-5-|-35-5-5-5-| |
|
|
|----------|----------|----------|----------| |
|----------|----------|----------|----------| |
|-57777777|-77777777-|-77777777-|-77777777-| |
|-57777777|-77777777-|-77777777-|-77777777-| | JAMES H.
|-35555555|-55555555-|-55555555-|-55555555-| playes.
|----------|----------|----------|----------| rhytm gtr.
> &&&
/ MR.HAMMETT
|-----------|-----------|---------|-----------| / the
|-----------|-----------|---------|-----------| | solo
|-----------|-----------|---------|-----------| |
|-57-7-7-7-|-57-7-7-7-|-5-7-5-7-|-57-7-7-7-| |
|-57-7-7-7-|-57-7-7-7-|-5-7-5-7-|-57-7-7-7-| |
|-35-5-5-5-|-35-5-5-5-|-3-5-3-5-|-35-5-5-5-| |
|
|
|----------|----------|-----------|-----------| |
|----------|----------|-----------|-----------| |
|----------|-----2----|-----------|-----------| |
|-----2----|---2---2--|-57-7-7-7-|-57-7-7-7-| |
|---2---2--|-1--------|-57-7-7-7-|-57-7-7-7-| |
|-1--------|----------|-35-5-5-5-|-35-5-5-5-| |
|
|
|----------|----------|-----------|-----------| |
|----------|----------|-----------|-----------| |
|----------|-----2----|-----------|-----------| |
|-----2----|---2---2--|-57-7-7-7-|-57-7-7-7-| |
|---2---2--|-1--------|-57-7-7-7-|-57-7-7-7-| |
|-1--------|----------|-35-5-5-5-|-35-5-5-5-| |
|
|---------|-----------| |
|---------|-----------| |
|---------|-----------| |
|-5-7-5-7-|-57-7-7-7-| |
|-5-7-5-7-|-57-7-7-7-| /
|-3-5-3-5-|-35-5-5-5-| /


Gtr1&2
|----------|----------|----------|----------|
|----------|----------|----------|----------| |
|-57777777|-77777777-|-77777777-|-77777777-| |
|-57777777|-77777777-|-77777777-|-77777777-| |
|-35555555|-55555555-|-55555555-|-55555555-| |
|----------|----------|----------|----------| |
|
|
|-----------|-----------|---------|-----------| |
|-----------|-----------|---------|-----------| |
|-----------|-----------|---------|-----------| |
|-57-7-7-7-|-57-7-7-7-|-5-7-5-7-|-57-7-7-7-| |
|-57-7-7-7-|-57-7-7-7-|-5-7-5-7-|-57-7-7-7-| |
|-35-5-5-5-|-35-5-5-5-|-3-5-3-5-|-35-5-5-5-| |
|
|
|----------|----------|----------|----------| |
|----------|----------|----------|----------| |
|-57777777|-77777777-|-77777777-|-77777777-| |
|-57777777|-77777777-|-77777777-|-77777777-| |
|-35555555|-55555555-|-55555555-|-55555555-| |
|----------|----------|----------|----------|

> 4 Verse
|-----------|-----------|---------|-----------| /
|-----------|-----------|---------|-----------| /
|-----------|-----------|---------|-----------| |
|-57-7-7-7-|-57-7-7-7-|-5-7-5-7-|-57-7-7-7-| |
|-57-7-7-7-|-57-7-7-7-|-5-7-5-7-|-57-7-7-7-| |
|-35-5-5-5-|-35-5-5-5-|-3-5-3-5-|-35-5-5-5-| |
|
Gtr1 |
|----------|----------|-----------|-----------| |
|----------|----------|-----------|-----------| |
|----------|-----2----|-----------|-----------| |
|-----2----|---2---2--|-57-7-7-7-|-57-7-7-7-| |
|---2---2--|-1--------|-57-7-7-7-|-57-7-7-7-| |
|-1--------|----------|-35-5-5-5-|-35-5-5-5-| |
| | | | | |
|Gtr2 | | | | |
|----------|-6--------|-----------|-----------| |
|-----6----|---6------|-----------|-----------| |
|---5---5--|-----3----|-----------|-----------| |
|-3--------|-------3--|-----------|-----------| |
|----------|----------|-----------|-----------| |
|----------|----------|-----------|-----------| |
|
|
Gtr1 |
|----------|----------|-----------|-----------| |
|----------|----------|-----------|-----------| |
|----------|-----2----|-----------|-----------| |
|-----2----|---2---2--|-57-7-7-7-|-57-7-7-7-| |
|---2---2--|-1--------|-57-7-7-7-|-57-7-7-7-| |
|-1--------|----------|-35-5-5-5-|-35-5-5-5-| |
| | | | | |
|Gtr2 | | | | |
|----------|-6--------|-----------|-----------| |
|-----6----|---6------|-----------|-----------| |
|---5---5--|-----3----|-----------|-----------| |
|-3--------|-------3--|-----------|-----------| |
|----------|----------|-----------|-----------| /
|----------|----------|-----------|-----------| /

So fucking what! Yeah!
|---------|---------|-----------------|----||
|---------|---------|-----------------|----||
|---------|---------|-----------------|----||
|-5-7-5-7-|-5-7-5-7-|-----------------|-7-||
|-5-7-5-7-|-5-7-5-7-|-----------------|-7-||
|-3-5-3-5-|-3-5-3-5-|-----------------|-5-||.


So fucking what!
1/Well I`ve been to Hastings,
and I`ve been to Brighton.
I`ve been to Eastport too.
So what. So what.
And I`ve been here,
I`ve been there.
I`ve been everying fucking where.
So what. So what.
So what, so what, you boring little cunt.
Who cares. Who cares what you do.
Yeah Who cares, Who cares about you, you, you, you, you.

2/Well I`ve fucked a queen.
I`ve fucked fucked.
I`ve even sucked an old man`s cock.
So what. So what.
And I`ve fucked a sheep.
I`ve fucked a goat.
I rammed my cock right down his throat.
So what. So what.
So what, so what, you boring little fuck.
Who cares. Who cares what you do.
And who cares,
Who cares about you, you, you, you, you.

3/And I`ve drunk that,
I`ve drunk this.
I`ve spewed up on a pint of piss.
So what. So what.
I`ve had scank,
I`ve have speed.
I`ve jacked up until I bleed.
So what. So what.
So what, so what, you boring little cunt.
Who cares. Who cares what you do.
Yeah who cares,
Who cares about you, you, you, you, you.



4/I`ve had crabs,
I`ve had lice,
I`ve had the clap and that ain`t nice.
So what. So what.
I`ve fucked this,
I`ve fucked that.
I`ve even fucked a school girl`s twat.
So what. So what.
So what, so what you boring little fuck.
Who cares. Who cares what you do.
And who cares,
Who cares about you, you, you, you, you, you.

So fucking what!
Yeah!



lyrics from
http://ezinfo.ucs.indiana.edu/~lwagers/metallica/so_what


I`ve got three questions:

1. There`s a home video "Cliff`em all!".
On the 38min:48sec is an interview(almost),after Cliff`s bass-solo.

Someone says to - Lars,Kirk,James(from left):

- Hey guys,don`t move!

There`s a background music! Who play this background song ???!
What is the title of this song ???!
^^^^^^^^^^^^^^^^^^^^^^^^^^^^^^^^^^^
(There`s only the solo,and a few words)
This situation is before "The four horsmen"

H E L P M E , please ! ! ! ! ! !

2. When Metallica put out next record ??

3. Has Metallica`s Fan club an e-mail adress?

Does anybody know the answers on this two questions,send me e-mail!! to
(one`s more)
rdylongr@zeus.polsl.gliwice.pl
or peterf@zeus.polsl.gliwice.pl



Права на тексты некоторых песен принадлежат компании ООО "Контент и право" Все тексты песен являются собственностью их автора.
Сайт создан в студии Далим
© 2004-2020 Akkords.NET