Музыка, аккорды для гитары, тексты песен и GTP самых популярных исполнителей на Akkords.NET
Подборки аккордов для гитары, табулатур, GTP на www.akkords.net
Поиск аккордов
 Аккорды и тексты песен Metallica — Nothing Else Matters (с переводом)
GTP к тексту песен : Отсутствует
Я хочу, чтобы добавили GTP этой песне

Metallica — Nothing Else Matters (с переводом)

Em(7)перебор 6-3-2-1-2-3-6...)
E-------0-----|-------0-----|-------0-----|-------0---7-|
B-----0---0---|-----0---0---|-----0---0---|-----0---0---|
G---0-------0-|---0-------0-|---0-------0-|---0---------|
D-------------|-------------|-------------|-------------|
A-------------|-------------|-------------|-------------|
E-0-----------|-0-----------|-0-----------|-0-----------|

Em...
E-7-----------7p0------------------7---8---7h8s5---7-5p3s2-----|
B-----0------------0-----0---------0---0-----------------------|
G---------0-----------0--------0-------------------------------|
D--------------------------------------------------------------|
A--------------------------------------------------------------|
E-0----------------------0-------------------------------------|
...Am(2) С(1)
E-----------------2p0---------|-------------0---0---0---|
B--0--0-------5-------5-------|---------5-------5---5---|
G---------5---------------5---|-----5-----------5---5---|
D-----------------------------|-------------------------|
A-----0-----------------------|-0---------------0---2---|
E-----------------------------|-------------------------|

D(1)
E-0-----------3p0-----0---|-0-----------0h5p0-------0|
B-5-------5-------5---5---|-7-------7---------7p0-0h-|
G-5-----5---5-------5-5---|-7-----7---7--------------|
D-------------------------|--------------------------|
A-3---3---------------3---|-5---5--------------------|
E-------------------------|--------------------------|

Em(4)
E-------------12------|------0------|--------0-----|-------0-----| ----------12
B---12--12------0---|------0---0----|------0---0---|-----0---0---| 12--12-----флажолет.
G---12-------------0-|---0-------0--|----0-------0-|---0-------0-| 12----------...
D---------------------|-------------|--------------|-------------|
A---------------------|-------------|--------------|-------------|
E-0-------------------|0------------|-0------------|-0-----------|

Em D(1/2(4-3-2)C(1/2) Em
E-------------7-----------|-------------|-------------7-----------|
B-------------8-----------|-----7-----5-|-------------8-----------|
G-----------9-------------|-----7-----5-|-----------9-------------|
D---------9---------------|---7-----5---|---------9---------------|
A-------7-----------------|-5-----3-----|-------7-----------------|
E-0-----------------------|-------------|-0-----------------------|

D(1/2)C(1/2) Em D(1/2(4-3-2)C(1/2)
E-------------|--------------7-------|-----------------------|
B-----7-----5-|--------------8-------|------7-----------5----|
G-----7-----5-|-----------9----------|------7-----------5----|
D---7-----5---|---------9------------|---7------------5------|
A-5-----3-----|-------7--------------|-5-----------3---------|
E-------------|-0--------------------|-----------------------|

G(1/2) H7(1/2) Em
E-------------------------|-------0-----|-------0-----|
B-------0-----------4-----|-----0---0---|-----0---0---|
G-------4-----------4-----|---0-------0-|---0-------0-|
D---5-----------4---------|-------------|-------------|
A-------------2-----------|-------------|-------------|
E-3-----------------------|-0-----------|-0-----------|

А вот и сама песня:

Em D C
E-------------3-----0-----|-2-----3-----0-----------|
B---------0-----------0---|---------3-------3-------|
G-----0-----------0-----0-|-----------0-------0-----|
D-------------------------|-0--0--------------------|
A-------------------------|-------------3-----------|
E-0-----------------------|---------------------3-2-|

Em D C
E-------------3-----0-----|-2------------0-------------|
B---------0-----------0---|-------3---------3----------|
G-----0-----------0-----0|----------2p0--------0-------|
D-------------------------|-0--0-----------------------|
A-------------------------|--------------3-------------|
E-0-----------------------|------------------------3-2-|

Em D C
E-------------3-----0-----|-2-----3-----3-----------|
B---------0-----------0---|---------3-------3-------|
G-----0-----------0-----0-|-----------0---------0---|
D-------------------------|-0--0--------------------|
A-------------------------|-------------3-----------|
E-0-----------------------|-------------------------|
G(1/2) H7(1/2) Em
E---------3---2-------2---|-0-----0-----|-------------0-----|
B---------3---0---------0-|-----0---0---|---------0-------0-|
G-----0-------2----------2|---0-------0-|-----0-------------|
D-------------------------|-------------|-------------------|
A-------------2-----2-----|-------------|-------------------|
E-3-----------------------|-0-----------|-0-----------------|
Песня с переводом..:)

Nothing Else Matters(Hetfield, Ulrich)

So close no matter how far (Em-D-C)
couldnґt be much more from the heart (Em-D-C)
forever trusting who we are (Em-D-C)
and nothing else matters (G-H7-Em)
never opened myself this way
life is ours, we live it our way
all these words I donґt just say
and nothing else matters
trust I seek and I find in you
every day for us something new
open mind for a different view
and nothing else matters

never cared for what they do
never cared for what they know
but I know

so close no matter how far
couldnґt be much more from the heart
forever trusting who we are
and nothing else matters

never cared for what they do
never cared for what they know
but I know
(знаю, тут проигрыш, но я его не знаю...стыдно, товариши мне,стыдно!)

Never opened myself this way
Life is ours, we live it our way
All these words I donґt just say
And nothing else matters
Trust I seek and I find in you
Every day for us something new
Open mind for a different view
and nothing else matters

never cared for what they say
never cared for games they play
never cared for what they do
never cared for what they know
and I know
Ничто Больше Не Имеет Значения

Так близко не значит как далеко
Не могло бы быть намного больше от сердца
Вечно доверяя тем, кто мы есть
И ничто больше не имеет значения
Я никогда не открывал себя с этой стороны
Жизнь - наша, и мы проживаем ее по своему
Все эти слова я не просто так говорю
И ничто больше не имеет значения
Доверие, что я ищу, я нахожу в тебе
Каждый день для нас - это что-то новое
Открой свой разум для разный точек зрения
И ничто больше не имеет значения

Важно не то, что они делают
Важно не то, что они знают
А то, что знаю я

Так близко не значит как далеко
Не могло бы быть намного больше от сердца
Вечно доверяя тем, кто мы есть
И ничто больше не имеет значения

Важно не то, что они делают
Важно не то, что они знают
А то, что знаю я

Я никогда не открывал себя с этой стороны
Жизнь - наша, и мы проживаем ее по своему
Все эти слова я говорю не просто так
И ничто больше не имеет значения
Доверие, что я ищу, я нахожу в тебе
Каждый день для нас - это что-то новое
Открой свой разум для разный точек зрения
И ничто больше не имеет значения

Важно не то,, что они говорят
Важно не то, в какие игры они играют
Важно не то, что они делаютВажно не то, что они знают
И я знаю

Так близко не значит как далеко
Не могло бы быть намного больше от сердца
Вечно доверяя тем, кто мы есть
И ничто больше не имеет значения

Права на тексты некоторых песен принадлежат компании ООО "Контент и право" Все тексты песен являются собственностью их автора.
Сайт создан в студии Далим
© 2004-2020 Akkords.NET