Музыка, аккорды для гитары, тексты песен и GTP самых популярных исполнителей на Akkords.NET
Подборки аккордов для гитары, табулатур, GTP на www.akkords.net
Поиск аккордов
 Аккорды и тексты песен Metallica — Hit The Lights
GTP к тексту песен : Отсутствует
Я хочу, чтобы добавили GTP этой песне

Metallica — Hit The Lights

HIT THE LIGHTS
--------------

intro 144 bpm

4/4 2/4 4/4
|---|---------|-----|--------|-----|
|---|---------|-----|--------|-----|
|-7-|-7-7-7-7-|-7-7-|-7------|-----|
|-0-|-0-0-0-0-|-0-0-|-0------|-2---|
l q q q q q q l l
/ /
/ /

|---------------------------------------------|-------||
|---------------------------------------------|-------||
|-2-0-2-0---2-0-2-4-4-4-2-4-4-4-4-2-0-0-------|---R---||
|---------2-----------------------------2-----|-------||
t t t t s t t t t t t t t t t t t t t l

160 bpm fig.1
| 4 |------|------|------|------|-------------------------|
|-----|---R--|---R--|---R--|---R--|-------------------------|
|-----|-0----|-0----|-0----|-0----|-0-0-0-0-0-0-0-3-0-5-0-3-|
| |------|------|------|------|-------------------------|
e h.. e h.. e h.. e h.. e s s s s s s e s e s e

|---------------------------|-------------------------|
|---------------7-5---5-----|-------------------------|
|-0-0-0-0-0-0-0-----7---6-7-|-0-0-0-0-0-0-0-3-0-5-0-3-|
|---------------------------|-------------------------|
e s s s s s s s s s e s e e s s s s s s e s e s e

Verse 1
end fig.1 fig.2 end fig.2
|---------------------------||-----------------|---------------|
|---------------------------||-----------------|---------------|
|-0-0-0-0-0-0-0-0-1-2-3-3-4-||-5-5-7-----------|-5-5-5-3--2----|
|---------------------------||-------3-3-3-3-0-|-------------2-|
e s s s s s s s s s e s e e q e e s e s e e q e e. e. e

play fig.1, fig.2, first two bars of fig.1

Chorus
fig.3 7/8 end fig.3
|---------------------|-------------||---------------|---------------|
|---------------------|-------------||---------------|---------------|
|---7-7-7-7-7-7-7-7-7-|-------3-2---||---R-------R---|-----R---3-----|
|-0-------------------|-3-2-3-----3-||-5---5-3-5---5-|-3-5---5----3--|
e e s s e e s e s e q q q q q q e e q s s e q s s e q e. e.
[ 3 ] [ 3 ]

play fig.3 two times more

4/4
|---------------|---||
|---------------|---||
|---R-------R---|-R-||
|-5---5-3-5---5-|---||
e e q s s q e w

Interlude : play fig.1

Verse 2 : play fig.2, fig.1, fig.2, first two bars of fig.1

|---------------------|-------------||
|---------------------|-------------||
|---7-7-7-7-----------|-------3-2---||
|-0---------0-0-0-0-0-|-3-2-3-----3-||
e e s s e e s e s e q q q q q q
[ 3 ] [ 3 ]

Chorus 2 : play fig.3 3 times

|---------------|---||
|---------------|---||
|---R-------R---|-R-||
|-5---5-3-5---5-|---||
e e q s s q e w

Interlude 2 : play fig.1

Verse 3 : play fig.2, fig.1, fig.2, first two bars of fig.1

|---------------------|-------------||
|---------------------|-------------||
|---7-7-7-7-----------|-------3-2---||
|-0---------0-0-0-0-0-|-3-2-3-----3-||
e e s s e e s e s e q q q q q q
[ 3 ] [ 3 ]

Chorus 3 : play fig.3 4 times

4/4 7/8 4 times
|-----||-------|---|---|-----------------||
|-----||-o-----|---|---|-7--5----------o-||
|-----||-o---R-|-R-|-R-|-------7-6-5---o-||
|-5-3-||---5---|---|---|-------------8---||
h h e h.. w w e. e. e e e e

Guitar solo
4/4
||-------------------------|---------------------|-----------------------|
||-o-----------------------|---------------------|-----------------------|
||-o---R---R---R-----------|---R---R---R-----7-7-|---R---R---R-----------|
||---7---7---7---7-7-10-10-|-7---7---7---7-7-----|-7---7---7---7-7-10-10-|
e s e s e s s e e e e s e s e s s e e e e s e s e s s e e e

7/8 8 times
|------------------||
|-9--7-----------o-||
|-------9-8-7----o-||
|-------------10---||
e. e. e e e e

4/4
||-----------------------|---------------------|---------------------|
||-o---------------------|---------------------|---------------------|
||-o---R---R---R---------|---R---R---R-----5-5-|---R---R---R---------|
||---5---5---5---5-5-8-8-|-5---5---5---5-5-----|-5---5---5---5-5-8-8-|
e s e s e s s e e e e s e s e s s e e e e s e s e s s e e e

7/8 2 times
|-----------------||---------------|---------------|
|-7--5----------o-||-7--5----------|-7--5----------|
|-------7-6-5---o-||-------7-6-5---|-------7-6-5---|
|-------------8---||-------------8-|-------------8-|
e. e. e e e e e. e. e e e e e. e. e e e e

|-----|------|-----|-----|-------||
|-----|------|-----|-----|-------||
|-----|------|-----|-----|-----R-||
|-5---|-(5)--|-(5)-|-(5)-|-5-5---||
w w w l q q h
/ /
/ /


Lyrics :
1. No life `till leather
We`re gonna kick some ass tonight
Got the metal madness
When our fans start screamin` it`s right, Well alright Yeah

When we start to rock we never, will stop again
Hit the lights
Hit the lights
Hit the lights

2. Know our fans are insane
We`re gonna blow this place away
With volume higher
Than anything today. The only way

When we start to rock we never, will stop again
Hit the lights
Hit the lights
Hit the lights

3. With all out screamin`
We`re gonna rip right through your brain
We got the lethal power
It`s causin` you sweet pain, Oh, sweet pain

When we start to rock we never, will stop again
Hit the lights
Hit the lights
Hit the lights
Hit the lights


Права на тексты некоторых песен принадлежат компании ООО "Контент и право" Все тексты песен являются собственностью их автора.
Сайт создан в студии Далим
© 2004-2020 Akkords.NET