Музыка, аккорды для гитары, тексты песен и GTP самых популярных исполнителей на Akkords.NET
Подборки аккордов для гитары, табулатур, GTP на www.akkords.net
Поиск аккордов
 Аккорды и тексты песен Metallica — Helpless
GTP к тексту песен : Отсутствует
Я хочу, чтобы добавили GTP этой песне

Metallica — Helpless

Double time feel

Intro N.C. Gtrs I&II Rhy.Fig.1
(Drums) A5 B5 N.C. F#5 E5 F5 E5
|--------------------|----------------------||------------------------------|
|--------------------|----------------------||------------------------------|
|--------------------|----------------------||------------------------------|
|--------------------|-----2-----4----------||------------------------------|
|--------------------|-----0-----2-----2p0--||--4-----4-----2--4-----4-----2|
|--------------------|----------------------||--2-----2-----0--2-----2-----0|

(End Rhy.Fig.1)
E5 A5 B5 N.C. F#5 E5 A5 B5 N.C.
|-----------------------------------------||--------------------------------|
|-----------------------------------------||--------------------------------|
|-----------------------------------------||--------------------------------|
|-------------------------2-----4---------||-----------------2-----4--------|
|---------4-----4-----2---0-----2-----2p0-||--4-----4-----2--0-----2----2p0-|
|---------2-----2-----0-------------------||--2-----2-----0-----------------|
Chorus.
Rhy.Fig.2(Gtrs.I&II)
|---------------------------------------------------|------------------------
|---------------------------------------------------|------------------------
|-------------------------------------------------5-|------------------------
|-------7--7--7--7--7--7--7--7--7p5---------------5-|--7--7--7--7--7--7--7--7
|-------------------------------------7--5--5--7----|------------------------
|---------------------------------------------------|------------------------
------------------|------------------------------------------------|---------
------------------|------------------------------------------------|---------
--------------5---|---------------------------------------------5--|---------
--------------5---|---7--7--7--7--7--7--7--7--7p5---------------5--|---------
--7--5--5--7------|---------------------------------7--5--5--7-----|---------
------------------|------------------------------------------------|---------
End Rhy.Fig.2
|---------------------------------------------------||
|---------------------------------------------------||
|---------------------------------------------------||
|-------7--7--7--7--7--7----------------------------||
|-------------------------0---5--5-----7--7---------||
|-----------------------------3--3-----5--5---------||

Bass Play 4 times
|-------------------------------------------||------------------------------|
|-------------------------------------------||------------------------------|
|-------------------------------------------||------------------------------|
|-------------------------------------------||------------------------------|
|----------------4--------------------------||------0------2p0-----2---2p0--|
|----------------2--------------------------||-2----------------2-----------|
|------------------------------------------------------|--------------------
|------------------------------------------------------|--------------------
|------------------------------------------------------|--------------------
|------------------------------------------------------|--------------------
|----2-----4p2-----2---4p2-|------3----5p3-----3----5p3|-------5---7p5-----5
|4--------------4-------------5--------------5-----------7--------------7---
|---------------------------------------------------------------------------
|---------------------------------------------------------------------------
|---------------------------------------------------------------------------
|---------------5-----7p5------5----7p5--------------5-----7p5------5----7p5
|---7p5----7---------------7-------------------7---------------7------------
|---------------------------------------------------------------------------
|--------------------------------------------------------------------------------------
|--------------------------------------------------------------------------------------
|--------------------------------------------------------------------------------------
|--------7----9p7------7---9p7---------------------------------------------------------
|---9--------------9-------------------3-----5p3-----3---5p3------3-----5p3-----3---5p3
|----------------------------------5--------------5-----------5--------------5---------

|--------------------------------------------------------------------------------------
|--------------------------------------------------------------------------------------
|--------------------------------------------------------------------------------------
|------------------------------------7----9p7------7---9p7--------5----7p5-----7----7p9
|------5-----7p5------5---7p5---9--------------9-------------7--------------9----------
|-7---------------7--------------------------------------------------------------------

|--------------------------------------------------------------------------------------
|--------------------------------------------------------------------------------------
|-----9-----11p9-----7----9p7----------------------------------------------------------
|11--------------9---------------------------------------------------------------------
|--------------------------------------5---7p5----5---7p5-------3---5p3----5--7p5------
|---------------------------------7------------7-----------5------------7--------------

|--------------------------------------------------------------------------------------
|--------------------------------------------------------------------------------------
|------------------------------------5-----7p5-----------------------------------------
|-----7-----9p7-----5---7p5----7----------------5--------------------------------------
|-9-------------7-------------------------------3---5---7-----9----------5----7----9---
|---------------------------------------------------3---5-----7----------3----5----7---

|--------------------------------------------------------------------------------------
|--------------------------------------------------------------------------------------
|--------------------------------------------------------------------------------------
|------3-----5p3--5-----------------------------------------7---------------7----------
|-5---------------3---5---7---9---------5---7---9-----9p7---7-----9---9p7---7-----9----
|---------------------3---5---7---------3---5---7---------9---------------9------------

|-------------------------------------|----------------------------------------------------
|-------------------------------------|----------------------------------------------------
|-------------------------------------|----------------------------------------------------
|--------7------------7-------------9-|-----------------------------------------2----4-----
|9p7-----7--------9---5------7------7-|-4----4----------4----4--------4----4----0----2--2p0
|-----9----------------------5--------|-2----2----------2----2--------2----2---------------

|------------------------------------------------------------------------------------------
|------------------------------------------------------------------------------------------
|------------------------------------------------------------------------------------------
|------------------------------------------------------------------------------------------
|-4----4----------4----4-------------------------------------------------------------------
|-2----2----------2----2-------------------------------------------------------------------

I gotta see you moving fast
See you come my way
See the dreams, I hope they last
Never fade away.
Gotta see the lights above
Make it loud tonight
Gotta set it all a-fire
Set it all a-light
See the flashing lights
Hear the thunder roar
I am gonna set you all a-light
Gotta make it man
I ainґt got a choice
Gotta fill this hall tonight
Helpless
Helpless
Helpless
Helpless
I donґt what Iґm gonna do
Maybe not tonight
Gotta set you all a-fire
Gotta treat you right.
I can see the flashing lights
Lit before your love, oh
Gotta hear the thunder roar
Coming from above.
See the flashing lights
Hear the thunder roar
Iґm gonna set you all alight
Gotta make it man
I ainґt got no choice
Gotta fill this hall tonight
Helpless
Helpless
Helpless
Helpless
I can see the stars
I can see whatґs going on
Every night alone
I sing my song just for fun.
Only time will tell
If Iґll make it myself someday
This stage is mine
Music is my destiny.
Cannot squeeze the life from me!
I can see the lights
But I can see whatґs going on
Every night alone
I sing my song just for fun.
Business in collapse
Some men donґt like it so
Helpless maybe babe,
But you can leave or join the show.
Cannot squeeze the life from me!

Права на тексты некоторых песен принадлежат компании ООО "Контент и право" Все тексты песен являются собственностью их автора.
Сайт создан в студии Далим
© 2004-2020 Akkords.NET