Музыка, аккорды для гитары, тексты песен и GTP самых популярных исполнителей на Akkords.NET
Подборки аккордов для гитары, табулатур, GTP на www.akkords.net
Поиск аккордов
 Аккорды и тексты песен Metallica — Am I Evil
GTP к тексту песен : Отсутствует
Я хочу, чтобы добавили GTP этой песне

Metallica — Am I Evil

100 bpm
|--------|------|------| 3 |---|-------|---|-------|---|-----|---|-------|
|--------|------|------|-----|---|-------|---|-------|---|-----|---|-------|
|-7--5-7-|-8----|---R--|-----|---|-----2-|-1-|-(1)---|---|---2-|-1-|-(1)---|
|--------|----3-|-0----| |-0-|-(0)---|---|-----1-|-0-|-0---|---|-----1-|
h. e e h. q q h. w (h) h w (h) h w h h w (h) h

|---|-------|---|-------|---|-----|---|-------|---|-----------------|
|---|-------|---|-------|---|-----|---|-------|---|-----------------|
|---|-----2-|-1-|-(1)-8-|-7-|---2-|-1-|-(1)---|---|-----5-5-5-5-5-5-|
|-0-|-(0)---|---|-------|---|-0---|---|-----1-|-0-|-(0)-------------|
w (h) h w (h) h w h h w (h) h w (h) e e e e e e
[ 3 ] [ 3 ]

|--------------------|-----------------------|---------------------|
|--------------------|-----------------------|---R---------R-------|
|-7---------R-------|---R-------5-5-5-5-5-5-|-7-------------7-7-7-|
|----0-0-0-0---0-0-0-|-0---0-0-0-------------|-----0-0-0-0---------|
q e e e e e e e e e e e e e e e e e e e e e e e e e e e e e
[ 3 ] [ 3 ] [ 3 ] [ 3 ] [ 3 ] [ 3 ] [ 3 ]

|---------------------|---------------------|-----------------------|
|---------------------|---R-----------------|-----------------------|
|-7-7-7-7-5-5-5-5-5-5-|-7-----------R-------|---R-------5-5-5-5-5-5-|
|---------------------|-----0-0-0-0---0-0-0-|-0---0-0-0-------------|
q e e e e e e e e e e e e e e e e e e e e e e e e e e e e e e
[ 3 ] [ 3 ] [ 3 ] [ 3 ] [ 3 ] [ 3 ] [ 3 ] [ 3 ]

160 bpm
240 bpm 2/4 4/4
|---------|-----------|-------------|------------|| 13 |----|---|---|
|---------|---9-8-/15-|-14-15-15h17-|-(17)-(17)-||------|----|---|---|
|-------8-|-7---------|-------------|------------||------|--R-|-R-|-R-|
|-0-7-6---|-----------|-------------|------------|| |----|---|---|
q q q q q q q q q q h (h.) (q) h w w

|---|-------|----|---------------|-----------|------------------|
|---|-R-----|----|---------------|-----------|----5-------------|
|-7-|----5/-|-/7-|-(7)-5h7-5---5-|-7-(7)-5/-|-/7---7-5---------|
|-0-|-------|--0-|-(0)-------7---|-----------|----------7-6-5-3-|
w h. q w (q.) q e e e h.+e e e e e e e e e e

fig.1 end fig.1 3 times fill 1 end fill 1
||-------------------|--------------||-----------------|-----------------|
||-o-----------------|------------o-||-----------------|-----------------|
||-o-----------------|------------o-||-----------------|-------------5-7-|
||---0-0-0-0-3-0-0-5-|-0-0-0-6--5---||-0-0-0-0-3-0-0-5-|-0-0-0-5-6-7-----|
e e e e e e e e e e e q. q e e e e e e e e e e e e e e e e

Verse 1,2 fill 2 end fill 2
||-- |-----------------|-----------------|
||-o play fig.1 3 times |-----------------|-----------------|
||-o |-----------------|-------5-7-5-----|
||-- |-0-0-0-0-3-0-0-5-|-0-0-0-------7-5-|
e e e e e e e e e e e e e e e e

Pre-chorus 4 times
||-------------------|--------------||
play fig.1 4 times ||-o-----------------|------------o-||
||-o---------5-----7-|-------8--7-o-||
||---7-7-7-7---7-7---|-7-7-7--------||
e e e e e e e e e e e q. q

Chorus
play fig.1, 1st time play fill 1 , play fig.1 2 times
2nd time play fill 3

fill 3
|-----------------|-----------------|
|-----------------|-----------------|
|-----------------|---7-7-7-7-7-7-7-|
|-0-0-0-0-3-0-0-5-|-0---------------|

|1. |2.
--||---------|-5-5-5-5-5-5-------|
play fig.1, play fill 1 o-||---------|-------------------|
o-||-7--5--3-|---------------5-6-|
--||---------|-------------7-----|
q. q. q e s s e e e e e e

3 times
|-----------------|------------||-----------|-5-5-5-5-5-5---------||
|-----------------|------------||-o---------|-------------------o-||
|-7---------------|------------||-o-7--5--3-|---------------5-6-o-||
|---0-0-0-3-0-0-5-|-0-0-0-6--5-||-----------|-------------7-------||
e e e e e e e e e e e q. q q. q. q e s s e e e e e e

192 bpm triplet feel
fig.3
|----------|---------------|-----|-----||---------------------|
|----------|---------------|-----|-----||---7-7-7-7---7-7-7-7-|
|-7--9--10-|-(10)-(10)-3--|-(3)-|-(3)-||-0---------0---------|
|----------|---------------|-----|-----||---------------------|
q. q. q e (e) h. (w) (w) e e e e e e e e e e
[ 3 ] [ 3 ]

end fig.3
|---------------|---------------------|---------------|---------------------|
|---7-7-7-7-----|---7-7-7-7---7-7-7-7-|---7-7-7-7-----|---7-7-7-7---7-7-7-7-|
|-0-----------5-|-0---------0---------|-0---------3---|-0---------0---------|
|-----------3---|---------------------|-------------3-|---------------------|
e e e e e q q e e e e e e e e e e e e e e e q q e e e e e e e e e e
[ 3 ] [ 3 ] [ 3 ] [ 3 ] [ 3 ] [ 3 ]

|---------------|---------------------|--------------------||
|---7-7-7-7-----|---7-7-7-7---7-7-7-7-|---7-7-7-7-7-7-7----||
|-0-----------5-|-0---------0---------|-0---------------7-||
|-----------3---|---------------------|--------------------||
e e e e e q q e e e e e e e e e e e e e e e e e e q
[ 3 ] [ 3 ] [ 3 ] [ 3 ] [ 3 ]

Bridge 1
fig.4
||-----------------------|-----------------|---------------------|
||-o---------------------|-----------------|---------------------|
||-o-7---------7---------|-7-----------5---|-7---------7---------|
||-----0-0-0-0---0-0-0-0-|---0-0-0-0-0-----|---0-0-0-0---0-0-0-0-|
e e e e e e e e e e e e e e e e e+q e e e e e e e e e e
[ 3 ] [ 3 ] [ 3 ] [ 3 ] [ 3 ]

Chorus II
end fig.4 4 times
|-------------------|| |--------------------|
|-----------------o-|| play fig.3, fig.3 first 3 bars |---7-7-7-7-7-7-7----|
|-7-----------5-5-o-|| |-0---------------7-|
|---0-0-0-0-0-------|| |--------------------|
e e e e e q q q e e e e e e e e q
[ 3 ] [ 3 ] [ 3 ] [ 3 ]


Bridge 2 : play fig.4 4 times, play fig.3 2 times

Guitar solo 6 times
|---|-----|-----||-----------------------|-----------------------||
|---|-----|-----||-o---------------------|---------------------o-||
|---|-----|---0-||-o-2-2-2-2-2-2-2-2-2-2-|-2-2-2-2-2-2-2-2-2-2-o-||
|-0-|-(0)-|-3---||-----------------------|-----------------------||
w (w) h h e e e e e e e e e e e e e e e e e e e e
[ 3 ] [ 3 ] [ 3 ] [ 3 ]

2 times
||-----------------------|-----------------------||
||-o---------------------|---------------------o-||
||-o-7---------7---------|-7---------7---------o-||
||-----0-0-0-0---0-0-0-0-|---0-0-0-0---0-0-0-0---||
e e e e e e e e e e e e e e e e e e e e
[ 3 ] [ 3 ] [ 3 ] [ 3 ]

5 times
||-----------------------|-----------------------||---------------------|
||-o---------------------|---------------------o-||---------------------|
||-o-2-2-2-2-2-2-2-2-2-2-|-2-2-2-2-2-2-2-2-2-2-o-||-0-0-0-0-0-0-0-0-0-0-|
||-----------------------|-----------------------||---------------------|
e e e e e e e e e e e e e e e e e e e e e e e e e e e e e e
[ 3 ] [ 3 ] [ 3 ] [ 3 ] [ 3 ] [ 3 ]

|---------------------|---------------------|---------------------|
|---------------------|---------------------|---------------------|
|-0-0-0-0-0-0-0-0-0-0-|---------------------|---------------------|
|---------------------|-1-1-1-1-1-1-1-1-1-1-|-1-1-1-1-1-1-1-1-1-1-|
e e e e e e e e e e e e e e e e e e e e e e e e e e e e e e
[ 3 ] [ 3 ] [ 3 ] [ 3 ] [ 3 ] [ 3 ]

|---------------------|---------------------|---------------------|
|---------------------|---------------------|---------------------|
|-1-1-1-1-1-1-1-1-1-1-|-1-1-1-1-1-1-1-1-1-1-|---------------------|
|---------------------|---------------------|-2-2-2-2-2-2-2-2-2-2-|
e e e e e e e e e e e e e e e e e e e e e e e e e e e e e e
[ 3 ] [ 3 ] [ 3 ] [ 3 ] [ 3 ] [ 3 ]

5 times
|---------------------||-----------------------|-----------------------||
|---------------------||-o---------------------|---------------------o-||
|---------------------||-o-2-2-2-2-2-2-2-2-2-2-|-2-2-2-2-2-2-2-2-2-2-o-||
|-2-2-2-2-2-2-2-2-2-2-||-----------------------|-----------------------||
e e e e e e e e e e e e e e e e e e e e e e e e e e e e e e
[ 3 ] [ 3 ] [ 3 ] [ 3 ] [ 3 ] [ 3 ]

|---------------------|---------------------|---------------------|
|---------------------|---------------------|---------------------|
|-7---------7---------|-7---------7---------|-7---------7---------|
|---0-0-0-0---0-0-0-0-|---0-0-0-0---0-0-0-0-|---0-0-0-0---0-0-0-0-|
e e e e e e e e e e e e e e e e e e e e e e e e e e e e e e
[ 3 ] [ 3 ] [ 3 ] [ 3 ] [ 3 ] [ 3 ]

2 times
|---------------||-----------------------|-----------------------||
|---------------||-o---------------------|---------------------o-||
|-7-------------||-o-2-2-2-2-2-2-2-2-2-2-|-2-2-2-2-2-2-2-2-2-2-o-||
|---0-0-0-0-0-3-||-----------------------|-----------------------||
e e e e e q h e e e e e e e e e e e e e e e e e e e e
[ 3 ] [3] [ 3 ] [ 3 ] [ 3 ] [ 3 ]


play fig.3, play fig.3 first 2 bars

|-----------------14-|-14-14-14-14-14-14-14-14-14-12----||
|---7-7-7-7---7-7----|-------------------------------14-||
|-0---------0--------|----------------------------------||
|--------------------|----------------------------------||
e e e e e e e e e e e e e e e e e e e e
[ 3 ] [ 3 ] [ 3 ] [ 3 ]

Bridge 3 : play fig.4 4 times, play fig.3 4 times

3 times rit.
||-------------------|-----------------------||---------------|-----------||
||-o-----------------|---------------------o-||-------------R-|-----R-----||
||-o-----7p0-5-5-5---|-5-5-5-------5-7p5---o-||-----7p0-5-5---|-5-5---5---||
||---0-0-----------0-|-------0-5h7-------7---||-0-0-----------|---------5-||
e e e e e e e e e e e e e e e e e e e e e e e q e e q e q q
[ 3 ] [ 3 ]

160 bpm, straight eight feel
|------|---|--------|----------------||-------------------|
|------|---|--------|----------------||-o-----------------|
|---R--|-R-|----5h7-|-7-7-7-7-7-7-7-||-o-----------------|
|-0----|---|-0------|----------------||---0-0-0-0-3-0-0-5-|
q h. w h.. e e e e e e e q e e e e e e e e

4 times
|--------------||-------||
|------------o-||-------||
|------------o-||-R-----||
|-0-0-0-6--5---||---3-0-||
e e e q. q h q q


Lyrics :
1. My mother was a witch, she was burned alive
Thankless little bitch for the tears I cried
Take her down now, don`t want to see her face
All blistered and burnt, can`t hide my disgrace

Pre-chorus :
Twenty-seven, ev`ry one was nice
Gotta see `em, make `em pay their price
See their bodies out on the ice
Take my time

Chorus :
Am I evil ?
Yes, I am
Am I evil ?
I am man, Yes, I am

2. As I watched my mother die, I lost my head
Revenge now I sought to break with my bread
Takin` no chances, you come with me
I`ll split you to the bone, help set you free

Pre-chorus

Chorus

Bridge :
3. On with the action now, I`ll strip your pride
I`ll spread your blood around, I`ll see you ride
Your face is scarred with steel, wounds deep and neat
Like a double dozen before ya, smells so sweet

Chorus II :
Am I evil ?
Yes, I am
Am I evil ?
I am man

4. I`ll take my residence, I`ll watch your fire
You can come with me, sweet desire
My face is long forgot, my face not my own
Sweet and timely whore, take me home

Chorus II

5. My soul is longing for, await my heir
Sent to avenge my mother, sleep myself
My face is long forgot, my face not my own
Sweet and timely whore, take me home

Chorus II

Am I evil ?
Yes, I fuckin` am
Am I evil ?
I am man

Права на тексты некоторых песен принадлежат компании ООО "Контент и право" Все тексты песен являются собственностью их автора.
Сайт создан в студии Далим
© 2004-2020 Akkords.NET