Музыка, аккорды для гитары, тексты песен и GTP самых популярных исполнителей на Akkords.NET
Подборки аккордов для гитары, табулатур, GTP на www.akkords.net
Поиск аккордов
 Аккорды и тексты песен Lake of Tears — Sweetwater
GTP к тексту песен : Отсутствует
Я хочу, чтобы добавили GTP этой песне

Lake of Tears — Sweetwater

Song title: Sweetwater
Artist: Lake Of Tears
Album: Headstones
Transcribed by Maria "Harmony" G.

I trnsposed it into the key of Am cause it’s much easier to play then in Gm

F G Am F C
Take me, please take me,
C G Am
Take me where the sweetwater flows,
Am F C
Take me, please take me,
C G Am F
Take me where the winds of spring blow
Am F E
|/0---0---0---0---|---------------|
|-----------------|-1---1---0-1-0-|
|---2---2---2---2-|---------------|
|-----------------|---3---3-------|
|-----------------|---------------|
|-----------------|---------------|

Am F E
|/0---0---0---0---|---------------|
|-----------------|-1---1---0-1-0-|
|---2---2---2---2-|---------------|
|-----------------|---3---3-------|
|-----------------|---------------|
|-----------------|---------------|

Am F E
|/0---0---0---0-----|----------------|
|-------------------|-1---1---0-1-0--|
|---2---2---2---2---|----------------|
|-------------------|---3---3--------|
|-------------------|----------------|
|-------------------|----------------|
As swaying as tide bitter and

Am F E
|/0---0---0---0---|---------------|
|-----------------|-1---1---0-1-0-|
|---2---2---2---2-|---------------|
|-----------------|---3---3-------|
|-----------------|---------------|
|-----------------|---------------|
sweet combined I close my eyes

F G
|-----------------|---------0-------|
|-1---1---3-1-0/--|-3---3-----3-1/3-|
|-----------------|---0---0---------|
|---3---3---------|-----------------|
|-----------------|-----------------|
|-----------------|-----------------|

Am F E
|/0---0---0---0----|----------------|
|------------------|-1---1---0-1-0--|
|---2---2---2---2--|----------------|
|------------------|---3---3--------|
|------------------|----------------|
|------------------|----------------|
Nothimg to fear there is no
Am F E
|/0---0---0---0---|---------------|
|-----------------|-1---1---0-1-0-|
|---2---2---2---2-|---------------|
|-----------------|---3---3-------|
|-----------------|---------------|
|-----------------|---------------|
evil near only you and me

Am F E
|/0---0---0---0---|---------------|
|-----------------|-1---1---0-1-0-|
|---2---2---2---2-|---------------|
|-----------------|---3---3-------|
|-----------------|---------------|
|-----------------|---------------|
And water sweet shallow but

Am F E
|/0---0---0---0---|---------------|
|-----------------|-1---1---0-1-0-|
|---2---2---2---2-|---------------|
|-----------------|---3---3-------|
|-----------------|---------------|
|-----------------|---------------|
oh so deep so very deep

F G
|-----------------|---------0-------|
|-1---1---3-1-0/--|-3---3-----3-1/3-|
|-----------------|---0---0---------|
|---3---3---------|-----------------|
|-----------------|-----------------|
|-----------------|-----------------|

Am F C
Take me, please take me,
C G Am
Take me where the sweetwater flows,
Am F C
Take me, please take me,
C G Am
Take me where the winds of spring blow

Am F
Different somehow
E Am
See so much clearer now
F E F G
I open my eyes
Am F
Wondering dim
E Am
Deep down into the dream
F E
Of obscurity
Am F
With water deep
E Am
Bitter but oh so sweet
F E F G
So very sweet
Am F C
Take me, please take me,
C G Am
Take me where the sweetwater flows,
Am F C
Take me, please take me,
C G Am F
Take me where the winds of spring blow

Bass:
|------------------|------------------|
|-----2--------2---|------------------|
|-0-0---0--0-0---0-|-----3--------3---|
|------------------|-1-1---1--1-1---1-|
Take me please take me

|------------------|------------------|
|-----5--------5---|------------------|
|-3-3---3--3-3---3-|-----5--------5---|
|------------------|-3-3---3--3-3---3-|
take me where the sweetwate flows

|------------------|------------------|
|-----2--------2---|------------------|
|-0-0---0--0-0---0-|-----3--------3---|
|------------------|-1-1---1--1-1---1-|
Take me please take me

|------------------|------------------|
|-----5--------5---|------------------|
|-3-3---3--3-3---3-|-----5--------5---|
|------------------|-3-3---3--3-3---3-|
take me where the winds of spring blow...
If you have any comments or corrections, please email me to
peace
-Harmony.

Права на тексты некоторых песен принадлежат компании ООО "Контент и право" Все тексты песен являются собственностью их автора.
Сайт создан в студии Далим
© 2004-2020 Akkords.NET