Музыка, аккорды для гитары, тексты песен и GTP самых популярных исполнителей на Akkords.NET
Подборки аккордов для гитары, табулатур, GTP на www.akkords.net
Поиск аккордов
 Аккорды и тексты песен Lake of Tears — Headstones
GTP к тексту песен : Отсутствует
Я хочу, чтобы добавили GTP этой песне

Lake of Tears — Headstones

Прислал: Paul Kurchatov

Tune all guitars down 1 full step

Riff A:
d|-------------|------------|------------|------------|
A|--------5----|----5--3----|-------3----|----3--5----|
F|-----4-----4-|----------4-|----4-----4-|----------4-|
C|--2----------|-2----------|-2----------|-2----------|
G|-------------|------------|------------|------------|
D|-------------|------------|------------|------------|

Riff B:
d|-------------|------------|------------|------------|
A|--------5----|----5--3----|-------3----|-3----------|
F|-----4-----4-|----------4-|----4-----4-|----4--4----|
C|--2----------|-2----------|-2----------|----------2-|
G|-------------|------------|------------|------------|
D|-------------|------------|------------|------------|

Riff C:
d|--------------|----7--------|-------------|------------|
A|--------10----|-------10----|--------8----|-------3----|
F|-----9------9-|-----------9-|-----9-------|----4-------|
C|--7-----------|-7-----------|-10----------|-5----------|
G|--------------|-------------|-------------|------------|
D|--------------|-------------|-------------|------------|

Riff D:
d|--------------|----7--------|-------------|------------|
A|--------10----|-------10----|--------8--8-|-3--------3-|
F|-----9------9-|-----------9-|-----9-------|----4-------|
C|--7-----------|-7-----------|-10----------|-------5----|
G|--------------|-------------|-------------|------------|
D|--------------|-------------|-------------|------------|

Riff E:
d|----------------------------|-----------7--------3----|
A|--1--------1--------0h1-----|--3-----------3--------3-|
F|-----2--------2---------2---|-----4-------------------|
C|--------3--------3--------3-|--------7--------7-------|
G|----------------------------|-------------------------|
D|----------------------------|-------------------------|

Riff F:
d|--------------------------|-----------7-------------|
A|--1--------1--------1-----|--3-----------3-----3----|
F|-----2--------2--------2--|-----4-----------------4-|
C|--------3--------3--------|--------7--------7-------|
G|--------------------------|-------------------------|
D|--------------------------|-------------------------|


Play order:
~~~~~~~~~~~
Riff A x3
Riff B
Riff C x3
Riff D
Riff E
Riff F
Riff C x5

Past the forest of the flies of fire
Beyound the waters of shimmering tears
By a fire they stand
Riff D
And they whisper my name

Pre-chorus:
~~~~~~~~~~~
Riff E
Now I seek upon the night
Riff F
Small fragments of moonlight

Chorus:
~~~~~~~
Am C G
Up the hill the headstones lie
Am C G
Up the hill the reapers watching eye
Am C G
Up the hill the headstones lie
Am C
Headstones...

In the circle of stones dressed in ivy
By the garden of the serene flowers
And the spirits are there
Whispering my name

Pre-chorus

Chorus


Права на тексты некоторых песен принадлежат компании ООО "Контент и право" Все тексты песен являются собственностью их автора.
Сайт создан в студии Далим
© 2004-2020 Akkords.NET