Музыка, аккорды для гитары, тексты песен и GTP самых популярных исполнителей на Akkords.NET
Подборки аккордов для гитары, табулатур, GTP на www.akkords.net
Поиск аккордов
 Аккорды и тексты песен Cranberries — Free To Decide
GTP к тексту песен : Отсутствует
Я хочу, чтобы добавили GTP этой песне

Cranberries — Free To Decide

Key: G

Intro:

G C Am Am
----------------------------------------------------------
------------------------------1-1-1-0--1--1-1-1-1-3--1--1-
--0-0-0-0--0--0-0-0-0-0--0--0-2-2-2-2--2--2-2-2-2-2--2--2- 2X
--0-0-0-0--0--0-2-2-2-2--2--2-2-2-2-2--2--2-2-2-2-2--2--2-
--2-2-2-0--2--2-3-3-3-3--3--3-0-0-0-0--0--0-0-0-0-0--0--0-
--3-3-3-3--3--3-------------------------------------------
Verse:
G C Am
It's not worth anything more than this at all
G C Am
I'll live as I choose or I will not live at all
G C/G Am
So return to where you come from, return to where you dwell
G C Am
Because harassment's not my forte, but you do it very well
Chorus:
G C/G Am
But I'm free to decide, I'm free to decide,
G C Am
And I'm not so suicidal after all.
G C/G Am
I'm free to decide, I'm free to decide
G C Am
And I'm not so suicidal after all.
You must have nothing more with your time to do
There's a war in Russia and Sarajevo too
So to hell with what you're thinking
And to hell with your narrow mind
Your so distracted from the real things
You should leave your life behind

(chorus)

(Bridge: Same chords as verse, with some vocal wailing)

(chorus)
Solo:

|----------------------------------------------------------------------
|-0-0-0-1--3--3-5-5-5-8--8--10-10h12-12-10--12--10-10h12-12-10--12--10-
|----------------------------------------------------------------------
|----------------------------------------------------------------------
|----------------------------------------------------------------------
|----------------------------------------------------------------------
|---------------------------------------------------12-12-12-10--12--10-
|-0-0-0-1--3--3-5-5-5-8--8-8-10-10h12-12-10--12--10-12-12-12-10--12--10-
|-----------------------------------------------------------------------
|-----------------------------------------------------------------------
|-----------------------------------------------------------------------
|-----------------------------------------------------------------------
|-12-12-12-10--12--10-
|-12-12-12-10--12--10-
|--------------------- 4X
|---------------------
|---------------------
|---------------------
|---------------------------------------------------12-12-12-10--10--10-10-
|-0-0-0-1--3--3-5-5-5-8--8-8-10-10h12-12-10--12--10-12-12-12-10--10--10--0-
|------------------------------------------------------------------------0-
|--------------------------------------------------------------------------
|--------------------------------------------------------------------------
|--------------------------------------------------------------------------

Права на тексты некоторых песен принадлежат компании ООО "Контент и право" Все тексты песен являются собственностью их автора.
Сайт создан в студии Далим
© 2004-2020 Akkords.NET