Музыка, аккорды для гитары, тексты песен и GTP самых популярных исполнителей на Akkords.NET
Подборки аккордов для гитары, табулатур, GTP на www.akkords.net
Поиск аккордов
 Аккорды и тексты песен Metallica — The Unfogiven
GTP к тексту песен : Отсутствует
Я хочу, чтобы добавили GTP этой песне

Metallica — The Unfogiven


Solo/intro: 1|--------------------------------------------------------------------------
2|--------------------------------------------------------------------------
3|--2-4-5-5-4-2-2--2-4-5-5-2--------2-4-5-5-5-5-4---4-0---0-2-4-2-----------
4|------------------------------------------------5-5-2---------------------
5|--------------------------------------------------------------------------
6|--------------------------------------------------------------------------

1|--------------------------------------------------------------------------
2|--------5-5-5-3-----------------------------------------------------------
3|--2-4-5---------4--4-1--1-2-4-2-------------------------------------------
4|-------------------5-2----------------------------------------------------
5|--------------------------------------------------------------------------
6|--------------------------------------------------------------------------

solo: 1|-----------------------------0-0-0-0-0-0----------------------------------
2|----0-1-3-1h3h1-0---0--------1-3-5-3-1-5----------------------------------
3|--2---------------2---0-2-------------------------------------------------
4|--------------------------------------------------------------------------
5|--0------------------------0----------------------------------------------
6|--------------------------------------------------------------------------

1|--------------------------------------------------------------------------
2|----8h10--8-7-------------------------------------------------------------
3|----7h9---7-7--9-7-5---7-5----------------------5-------------------------
4|---------------------7-----5------------------5---5-7---------------------
5|--0-----------------------------------3-5-6-7-----------------------------
6|----------------------------------3-5-------------------------------------

1|------------------------7---7----10------12-------14-------15----17-------
2|----8-7-8-7---7-8-10------8--8-8----8-10----10-12----12-13----13----------
3|------------9-------------------------------------------------------------
4|--------------------------------------------------------------------------
5|--0-----------------------------------------------------------------------
6|--------------------------------------------------------------------------


Права на тексты некоторых песен принадлежат компании ООО "Контент и право" Все тексты песен являются собственностью их автора.
Сайт создан в студии Далим
© 2004-2020 Akkords.NET