Музыка, аккорды для гитары, тексты песен и GTP самых популярных исполнителей на Akkords.NET
Подборки аккордов для гитары, табулатур, GTP на www.akkords.net
Поиск аккордов
 Аккорды и тексты песен Metallica — One
GTP к тексту песен : Отсутствует
Я хочу, чтобы добавили GTP этой песне

Metallica — One


One

1)------------------------------------------------------------------------
2)------------------------------------------------------------------------
3)-------------------------------------------------------------0----------
4)-----4-----0--------4-----0--------4-----0--------4-----0---------------
5)--2-----2-----------------------2-----2---------------------------------
6)-----------------3-----3-----------------------3-----3------------------

1)------------------------------------------------------------------------
2)------------------------------------------------------------------------
3)-(0)--------------------------------------------------------------------
4)-----4-----0--------4-----0--------4-----0------------------------------
5)--2-----2--------0-----0--------------------------2-----2---------------
6)--------------------------------3-----3--------0-----2------------------

1)------------------------------------------------------------------------
2)------------------------------------------------------------------------
3)-----------------------------------------------------------0------------
4)-----4-----0--------4-----0--------4-----0--------4-----0---------------
5)--2-----2-----------------------2-----2---------------------------------
6)-----------------3-----3-----------------------3-----3------------------

1)------------------------------------------------------------------------
2)------------------------------------------------------------------------
3)------------------------------------------------------------------------
4)-----4-----0--------4-----0--------4-----0------------------------------
5)--2-----2--------0-----0--------------------------2-----2---------------
6)--------------------------------3-----3--------0-----2------------------

1)------------------------------------------------------------------------
2)------------------------------------------------------------------------
3)------------------------------------------------------------------------
4)---------------------------------4-----0--0--4----------4-----0--4--4--0
5)-----2-----2-----2--2h4--2----2-----2-----------0-----------------------
6)--0-----2-----0--------------------------------------3-----3------------

1)------------------------------------------------------------------------
2)------------------------------------------------------------------------
3)------------------------------------------------------------------------
4)------4-----0--0--4-----------4-----0--4--4--0--------4-----0--0--4--0--
5)---2-----2-----------0-----------------------------2-----2--------------
6)---------------------------3-----3--------------------------------------

1)------------------------------------------------------------------------
2)------------------------------------------------------------------------
3)---------------------0----(0)-------------------------------------------
4)------4-----0--4--4-----------4-----0--0--4--0--------2h4--2------------
5)---0-----0-------------------------------------------------------4------
6)---------------------------3-----3-----------------0----------2---------

1)------------------------------------------------------------------------
2)-----------------------------------------------------0h3p0----0h3p0-----
3)---------------------------------0--7-----0-----------------4--------0--
4)---------0--------------------7--------7----------5---------------------
5)-----5------------7--------5--------------------------------------------
6)--3---------3--5--------------------------------------------------------

1)--------1-----------------------0---------------------------------------
2)-----------1-----------------0-----0---------0--------------------------
3)-----0--------0--------4--0---------------------0--4--------------------
4)--3-----------------2---------------------2-----------------------------
5)-----------------------------------------------------/3-----------------
6)------------------------------------------------------------------------

Права на тексты некоторых песен принадлежат компании ООО "Контент и право" Все тексты песен являются собственностью их автора.
Сайт создан в студии Далим
© 2004-2020 Akkords.NET