Музыка, аккорды для гитары, тексты песен и GTP самых популярных исполнителей на Akkords.NET
Подборки аккордов для гитары, табулатур, GTP на www.akkords.net
Поиск аккордов
 Аккорды и тексты песен Metallica — Nothing Else Matters
GTP к тексту песен : Отсутствует
Я хочу, чтобы добавили GTP этой песне

Metallica — Nothing Else Matters


[e|---------0-----|про- |-7--7--------7-------------7-8-7-5-3-5--|
B|-------0---0---|играть|-------0--------0-----------------------|
G|-----0-------0-|4раза |----------0--------0----0---------------|
D|---------------| |----------------------------------------|
A|---------------| |----------------------------------------|
E|--0------------| |----0-----------------0-----------------|

e|----------0-----------------0-----------------3----------------|
B|-------2-----2-----------2-----5--5--5-----5-----5-------------|
G|----2-----------2-----2-----------------5-----------5----------|
D|---------------------------------------------------------------|
A|-0-----------------0-----------0--0--3-------------------------|
E|---------------------------------------------------------------|

e|----------------|----------12-------|-------0-----|послед------|
B|--7-----7--7--0-|-------12----12----|-----0---0---|нее про-----|
G|-----7----------|----12----------12-|---0-------0-|играть------|
D|----------------|-------------------|-------------|3 раза------|
A|--5-------------|-------------------|-------------|------------|
E|----------------|-12----------------|-0-----------|------------|

D C
e|-------------3-------|--------2----------0---------------------|
B|-------0--------0----|--------3----------3---------------------|
G|----0-----0--------0-|-----2----------0------------------------|
D|---------------------|--0--------------------------------------|
A|---------------------|-----------0-3---------------------------|
E|-0-------------------|-----------------------------------------|

D C
e|-------------3-------|--------2----------0---------------------|
B|-------0--------0----|--------3----------3---------------------|
G|----0-----0--------0-|-----2----------0------------------------|
D|---------------------|--0--------------------------------------|
A|---------------------|-----------0-3---------------------------|
E|-0-------------------|-----------------------------------------|

D C Am
e|------------7---------2--------0-------------0-----------------|
B|-------0-------0--------3---------3-------------1--------------|
G|-----0---0-------0--------2----------0-------------2-----------|
D|-------------------0-------------------------------------------|
A|------------------------------3-----------0-----------3--------|
E|--0------------------------------------------------------------|

E
e|-0----------------0------------0-------------------------------|
B|----0-----------0---0--------0---0-----------------------------|
G|-------1------0-------0----0-------0---------------------------|
D|---------------------------------------------------------------|
A|---------------------------------------------------------------|
E|------------0------------0-------------------------------------|]


Права на тексты некоторых песен принадлежат компании ООО "Контент и право" Все тексты песен являются собственностью их автора.
Сайт создан в студии Далим
© 2004-2020 Akkords.NET