Музыка, аккорды для гитары, тексты песен и GTP самых популярных исполнителей на Akkords.NET
Подборки аккордов для гитары, табулатур, GTP на www.akkords.net
Поиск аккордов
 Аккорды и тексты песен Metallica — Nothing Else Matters
GTP к тексту песен : Отсутствует
Я хочу, чтобы добавили GTP этой песне

Metallica — Nothing Else Matters


1)---------0------------0------------0-------------0---7-7-----7------------7-8-7-8p5-7--
2)-------0---0--------0---0--------0---0---------0---0-----0-----10-0---0----------------
3)-----0-------0----0-------0----0-------0-----0-------------0--------0---0-----------4--
4)-------------------------------------------------------------9------------9-9----------
5)---------------------------------------------------------------------------------------
6)---0------------0------------0-------------0-----------0--------------0----------------

1)--5-3/2---------3p0-----------0---------------3p0-------------------5---------0--------
2)--------5-5---5-----5-------5---5-5-5-----5-------5---5-7-----7---5---5h7-0------------
3)------------5---------5---5-----5-5-5---5---5-------5-5-7---7---7-----------5----------
4)---------------------------------------------------------------------------------------
5)----------0-------------0-------0-2-3-3---------------3-5-5----------------------------
6)--------------------------------------------------------------------------------0------


Права на тексты некоторых песен принадлежат компании ООО "Контент и право" Все тексты песен являются собственностью их автора.
Сайт создан в студии Далим
© 2004-2020 Akkords.NET