Музыка, аккорды для гитары, тексты песен и GTP самых популярных исполнителей на Akkords.NET
Подборки аккордов для гитары, табулатур, GTP на www.akkords.net
Поиск аккордов
 Аккорды и тексты песен Metallica — For Whom the Bell Tolls
GTP к тексту песен : Отсутствует
Я хочу, чтобы добавили GTP этой песне

Metallica — For Whom the Bell Tolls


For Whom the Bell Tolls

1)
[e---------------------------------
B---------------------------------
G---------------7-6-5-4------7----
D------------------------5-4------
A--4-4--4-4--2-----------------5-4
E--2-2--2-2--0--------------------]
pm.......
intro (bass part for guitar)

2)
[D----------------------------------4
A----5-4-3----5-4-3----5-4-3---5---2
E--0-3-2-1-0--3-2-1-0--3-2-1-0-3-0--]
pm................................

3)
[D--2---5--*--2--5--5--2
A--2---5--*--2--5--3--0
E--0---3--*--0--3------]
Make his fight...
*=mute

4)
[e----------------------------
B--8-5-7----5-7--8-5-7----5-7
G---------7-------------7----
D----------------------------
A----------------------------
E----------------------------]
intro lead played as tripplets (groups of three)

5)
[D-----------------------------3--------------------------------3------
A--------5--------7--------5--1--4--------5--------7--------5--1-4-3-2
E--0-0-0-3--0-0-0-5--0-0-0-3-----2--0-0-0-3--0-0-0-5--0-0-0-3----2-1-0]
pm...... ...... ......
For whom the bell tolls...

6)
[e---------------------------------
B---------------------------------
G--12-9-11----9-------------------
D----------12---11-12-9-11----9---
A--------------------------12---10
E---------------------------------]
you play this a couple times, the 3rd time you play the same thing but
instead of ending on the () you end on on ()

7)
[D-------------------
A--4-4-2---4-4-5-5-2
E--2-2-0---2-2-3-3-0]
end

Make his fight on the hill in the early day
Constant chill deep inside
Shouting gun, on they run through the endless grey
On they fight, for they are right, yes, but who's to say?
For a hill men would kill, why? They do not know
Suffered wounds test their pride
Men of five, still alive through the raging glow
Gone insane from the pain that they surely know

For Whom the Bell Tolls
Time marches on
For Whom the Bell Tolls

Take a look to the sky just before you die
It is the last time he will
Blackened roar massive roar fills the crumbling sky
Shattered goal fills his soul with a ruthless cry
Stranger now, are his eyes, to this mystery
He hears the silence so loud
Crack of dawn, all is gone except the will to be
Now they see what will be, blinded eyes to see

For Whom the Bell Tolls
Time marches on
For Whom the Bell Tolls

Права на тексты некоторых песен принадлежат компании ООО "Контент и право" Все тексты песен являются собственностью их автора.
Сайт создан в студии Далим
© 2004-2020 Akkords.NET