Музыка, аккорды для гитары, тексты песен и GTP самых популярных исполнителей на Akkords.NET
Подборки аккордов для гитары, табулатур, GTP на www.akkords.net
Поиск аккордов
 Аккорды и тексты песен Metallica — Enter Sandman
GTP к тексту песен : Отсутствует
Я хочу, чтобы добавили GTP этой песне

Metallica — Enter Sandman


Enter Sandman

intro
1)
[D--------5-------------5----
A-----7--------7----7-------
E--0-------6-5---0-------6-5]
clean (yes, there are other ways to play this riff, but this is how
James plays it on "A Year and a half... pt1"

2a)
[D----------------------------------
A--2--------------7---------------7
E--0--0-0-0-0-0-0---0-0-0-0-0-0-0--]
pm.......... .............
distorted

2b)
[D------------------
A------7----------3
E--0-0---6--0-0-0-1]

2c)
[D-------------------
A------7-----------3
E--0-0---6-5-0-0-0-1]
pm.. .......

3)Main riff
[D---------------- -----------------------
A--2--2-/7------- 3 times ----5-----4-----4-5-4-2
E--0--0----6--5~~ -0--3--0--2--0--2-3-2-0]

4)
[D-----------------
A--2-------------3 twice then end with riff above^
E--0-0-0-0-0-0-0-1]
pm..............
Say your prayers...

5)
[G--------2--------------2------
D-----4--------4-----4--------4
A----------3-2------------3-2--
E--2--------------2------------]
Sleep with one eye...

6)
[D------5--4-----5--4-----5--4---
A---4--3--2--4--3--2--4--3--2--2
E--/2--------2--------2--------0]
Exit light

Права на тексты некоторых песен принадлежат компании ООО "Контент и право" Все тексты песен являются собственностью их автора.
Сайт создан в студии Далим
© 2004-2020 Akkords.NET