Музыка, аккорды для гитары, тексты песен и GTP самых популярных исполнителей на Akkords.NET
Подборки аккордов для гитары, табулатур, GTP на www.akkords.net
Поиск аккордов
 Аккорды и тексты песен Metallica — aint my bitch
GTP к тексту песен : Отсутствует
Я хочу, чтобы добавили GTP этой песне

Metallica — aint my bitch

(INTRO AND VERSE)
N.C G
E -X------------X-------------X---------------------------------------------|
B -X------------X-------------X---------------------------------------------|
G -X------------X-------------X---------------------------------------------|
D -X------------X-------5b6---X--------------------5------------------------|
A -X--5-7-7-7-7-X-5-7-7-----7-X-5-7-7-7--7-7-7-----5------------------------|
E -X--0-0-0-0-0-X-0-0-0-----0-X-0-0-0-0--0-0-0-----3------------------------|
Outta My Way Outta My Day Outta........ Etc...

(FILL1)
N.C N.C 3x's
E -----|-------------------|-------|
B -----|-------------------|-------|
G -----|-5---7---5b6-------|-5---5-|
D -5-7-|---7---7-----7-5-7-|---7---|
A -----|-------------------|-------|
E -----|-------------------|-------|

(FILL1)
N.C N.C 3x's
E -------|----------------------------|----------|
B -------|----------------------------|----------|
G -------|-12----14----12b13----------|-12----12-|
D -12-14-|----14----14-------14-12-14-|----14----|
A -------|----------------------------|----------|
E -------|----------------------------|----------|

(CHORUS)
B5 A5 G5 F#5 F5 Em5
E ----0--------0--------0-----|-----------|
B ------0--------0--------0---|-----------|
G -4--------2-----------------|-----------|
D -4--------2--------5--------|--4--3--2--|
A -2--------0--------5--------|--4--3--2--|
E -------------------3--------|--2--1--0--|

Прислал : nekto
Права на тексты некоторых песен принадлежат компании ООО "Контент и право" Все тексты песен являются собственностью их автора.
Сайт создан в студии Далим
© 2004-2020 Akkords.NET