Музыка, аккорды для гитары, тексты песен и GTP самых популярных исполнителей на Akkords.NET
Подборки аккордов для гитары, табулатур, GTP на www.akkords.net
Поиск аккордов
 Аккорды и тексты песен Разные — Цыганочка
GTP к тексту песен : Отсутствует
Я хочу, чтобы добавили GTP этой песне

Разные — Цыганочка

B||--------3----3--|--------3----3--|--------2----2--|--3-----3---------|
G||------3------3--|------2------2--|------0------0--|----------2-------|
D||----0--------0--|----0--------0--|----2--------2--|--0---------3-2-0-|
A||----------------|----------------|--0-------------|------------------|
E||--3-------------|--1-------------|----------------|------------------|
----------0---0---|----------0---0---|----------1-0-----|------------------|
--------3---3---3-|--------3---3---3-|--------2-----3-2-|--3---------------|
------3-----------|------2-----------|------0-----------|----2-------------|
----0-------------|----3-------------|----2-------------|--0---3-2-0-------|
--------------1---|--0---------------|----------0-------|------------3-1-0-|
--3---------------|--------------1---|--0---------------|------------------|
----------0-----|----------0-----|----------0-----|----1-0-----------|
--------3----3--|--------3----3--|--------2----2--|--3-----3---------|
------3------3--|------2------2--|------0------0--|----------2-------|
----0--------0--|----0--------0--|----2--------2--|--0---------3-2-0-|
----------------|----------------|--0-------------|------------------|
--3-------------|--1-------------|----------------|------------------|
----------0---0---|----------0---0---|----------1-0-----|------------------|
--------3---3---3-|--------3---3---3-|--------2-----3-2-|--3---------------|
------3-----------|------2-----------|------0-----------|----2-------------|
----0-------------|----3-------------|----2-------------|--0---3-2-0-------|
--------------1---|--0---------------|----------0-------|------------3-1-0-|
--3---------------|--------------1---|--0---------------|------------------|
-----0-----0--|-----0--------|-----0-----0--|-----0--------|-----0--------|
-----3-----3--|-----3-----3--|-----2-----2--|-----3-----3--|-----3-----3--|
-----3-----0--|-----2-----2--|-----3-----3--|-----2-----5--|-----3-----3--|
--------------|-----------0--|--------------|-----------0--|-----------0--|
--------1-----|--0-----------|--------------|--------------|--------------|
--3-----------|--------1-----|--0-----3-----|--1-----2-----|--3-----4-----|
-----0--------|-----0-----0--|-----0--------|-----0-----0--|-----0--------|
-----3-----3--|-----3--------|-----3-----3--|-----3-----3--|-----3-----3--|
-----2-----0--|-----1-----0--|-----2-----2--|-----3-----0--|-----2-----2--|
-----------0--|--------------|--0--------0--|--------------|-----------0--|
--0-----1-----|--2-----4-----|--------------|--------1-----|--0-----------|
--------------|--------------|--------1-----|--3-----------|--------1-----|
-----0-----0--|-----0--------|-----0--------|-----0--------|-----0-----0--|
-----2-----2--|-----3-----3--|-----3-----3--|-----3-----3--|-----3--------|
-----3-----3--|-----2-----5--|-----3-----3--|-----2-----0--|-----1-----0--|
--------------|-----------0--|-----------0--|-----------0--|--------------|
--------------|--------------|--------------|--0-----1-----|--2-----4-----|
--0-----3-----|--1-----2-----|--3-----4-----|--------------|--------------|
-----0--------|----------0-----|----------0-----|----------0-----|
-----3-----3--|----3--------3--|----3--------3--|----2--------2--|
-----2-----2--|------3------3--|------2------2--|------0------0--|
--0--------0--|--------0-------|--------0-------|--------2-------|
--------------|----------------|----------------|--0-------0-----|
--------1-----|--3-------3-----|--1-------1-----|----------------|
----------0-----|----0-----0-----|----0-----0-----|----------0-----|
----3-0------3--|------3------3--|------3------3--|----2--------2--|
-------------4--|--------3----0--|--------2----2--|------0------0--|
--------3-------|----------------|----------------|--------2-------|
----------------|----------1-----|--0-------------|----------0-----|
--4-------4-----|--3-------------|----------1-----|--0-------------|
---------0------|----------0-----|----------0-----|----------0-----|
---------3------|----3--------3--|----3--------3--|----2--------2--|
---------2------|------3------3--|------2------2--|------0------0--|
--0------3------|--------0-------|--------0-------|--------2-------|
----------------|----------------|----------------|--0-------0-----|
----------------|--3-------3-----|--1-------1-----|----------------|
----------0-----|----0-----0-----|----0-----0-----|----------0-----|
----3-0------3--|------3------3--|------3------3--|----2--------2--|
-------------4--|--------3----0--|--------2----2--|------0------0--|
--------3-------|----------------|----------------|--------2-------|
----------------|----------1-----|--0-------------|----------0-----|
--4-------4-----|--3-------------|----------1-----|--0-------------|
---------0------||
---------3------||
---------2------||
--0------3------||
----------------||
----------------||
Дополнение от Ale e-mail: alex_law@mail.ru
Dm Am E Am

I------------1—3-1-----------0-1-0----------0----------------------0-1-0--------
I---------3------------------1----------------0---3-0---------------1-----------
I------2------------------2-----------------1---------------------2-------------
I----0--------------------------------------------------------------------------
I---------------------0-----------------2-------------------0-------------------
I-------------------------------------------------------------------------------

Права на тексты некоторых песен принадлежат компании ООО "Контент и право" Все тексты песен являются собственностью их автора.
Сайт создан в студии Далим
© 2004-2020 Akkords.NET