Музыка, аккорды для гитары, тексты песен и GTP самых популярных исполнителей на Akkords.NET
Подборки аккордов для гитары, табулатур, GTP на www.akkords.net
Поиск аккордов
 Аккорды и тексты песен Классические — Римский-Корсаков. "Полёт шмеля"
GTP к тексту песен : Отсутствует
Я хочу, чтобы добавили GTP этой песне

Классические — Римский-Корсаков. "Полёт шмеля"

---------------------- ------------------ --4-3-2----3-2-1-0 1-0---------------
---------------------- ------------------ ------------------ ----3-2----1-0----
---------------------- ------------------ ------------------ ---------------4-3
---------------------- ------------------ ------------------ ------------------
---------------------- ------------------ ------------------ ------------------

------------------ ------------------ ------------------ ------------------
------------------ ------------------ ------------------ ------------------
------------------ ------------------ ------------------ ------------------
2-1-0------0------ 2-1-0------0------ ------------------ ------------------
------4------4-3-2 ------4------4-3-2 7-6-5-4----3-8-7-6 7-6-5-4----3-4-5-6
------------------ ------------------ ------------------ ------------------

------------------ ------------------ ------------------ ------------------
------------------ ------------------ ------------------ ------------------
------------------ ------------------ ------------------ ------------------
7-6-5-4----3-8-7-6 7-6-5-4----3-4-5-6 7-6-5-4----5-4-3-2 3-4-5-6----7-8-7-6
------------------ ------------------ ------------------ ------------------
------------------ ------------------ ------------------ ------------------

------------------ ------------------ ------------------ ------------------
------------------ ------------------ ------------------ ------------------
------------------ ------------------ ------------------ ------------------
------------------ -------------4-5-6 7-6-5-4----3-8-7-6 7-6-5-4----3-4-5-6
7-6-5-4----5-4-3-2 3-4-5-6----7------ ------------------ ------------------
------------------ ------------------ ------------------ ------------------

------------------ ------------------ ------------------ ------------------
------------------ ------------------ ------------------ ------------------
------------------ ------------------ ------------------ ------------------
7-6-5-4----3-8-7-6 7-6-5-4----3-4-5-6 7-6-5-4----5-4-3-2 3-4-5-6----7-8-7-6
------------------ ------------------ ------------------ ------------------
------------------ ------------------ ------------------ ------------------

------------------ ------------------ ------------------ ---------------
------------------ ------------------ ------------------ ---------------
------------------ ------------------ ------------------ 3---3---3---3--
7-6-5-4----5-4-3-2 3-4-5-6----7-8-7-6 7----------------- ---------------
------------------ ------------------ --0-0-0----0-0-0-0 ---------------
------------------ ------------------ ------------------ --4---4---4---4

------------------ --------------- ------------------ ------------------
------------------ --------------- ------------------ ------------------
2----------------- 3---3---3---3-- 2-3-2-1----2-3-2-1 2-3-2-1----2-3-2-1
------------------ --------------- ------------------ ------------------
--0-0-0----0-0-0-0 --------------- 0----------------- ------------------
------------------ --4---4---4---4 ------------------ ------------------

------------------ ------------------ ------------------ ---------------
------------------ ------------------ 3----------------- 4---4---4---4--
2-3-4-5----6-5-4-3 2-3-4-5----6-5-4-3 ------------------ ---------------
------------------ ------------------ --0-0-0----0-0-0-0 ---------------
------------------ ------------------ ------------------ --4---4---4---4
------------------ ------------------ ------------------ ---------------

------------------ --------------- ------------------ ------------------
3----------------- 4---4---4---4-- 3-4-3-2----3-4-3-2 3-4-3-2----3-4-3-2
------------------ --------------- ------------------ ------------------
--0-0-0----0-0-0-0 --------------- 0----------------- ------------------
------------------ --4---4---4---4 ------------------ ------------------
------------------ --------------- ------------------ ------------------

------------------- --------------------- 10-9-8-7----6-11-10-9 10-9-8-7----6-7-8-9
3-4-5-6----7------- --------------------- --------------------- -------------------
-------------10-9-8 7-8-9-10----11-10-9-8 --------------------- -------------------
------------------- --------------------- --------------------- -------------------
------------------- --------------------- --------------------- -------------------
------------------- --------------------- --------------------- -------------------

10-9-8-7----8-7-6-5 6-7-8-9----8-9-10-11 12-11-10-9----10-9-8-7 8-7-6-5----4-3-2-1
------------------- -------------------- ---------------------- ------------------
------------------- -------------------- ---------------------- ------------------
------------------- -------------------- ---------------------- ------------------
------------------- -------------------- ---------------------- ------------------
------------------- -------------------- ---------------------- ------------------

0-1-0------0-1-0-- 0-1-0------0-1-0-- 0------- ----------
------4----------4 ------4----------4 -------- ----------
------------------ ------------------ -------- ----------
------------------ ------------------ -----2-- ----------
------------------ ------------------ -------3 0------0-3
------------------ ------------------ -------- --1-------

------------------ ------------------ -----0-- -------
------------------ ------------------ -------1 ------1
------------------ ------------------ -------- 2---2--
2-1-0------0------ ------------------ -------- --3----
------4------4-3-2 3-2-1-0----------- -------- -------
------------------ -----------4-3-2-1 0------- -------

0----12-8 --------8 12----0 12-----------
--------- 10-6-10-- ------- -------------
--------- --------- ------- -------------
--------- --------- ------- -------------
--------- --------- ------- -------------
--------- --------- ------- ------0-1-2-3

------------------ ------------------ ------------------- ------------------
------------------ ------------------ ------------------- ------------------
------------------ ------------------ 9-8-7-6----5-10-9-8 9-8-7-6----5-6-7-8
---------------0-- ------------------ ------------------- ------------------
--0-1-2----3-4---6 7-8-7-6----7-8-7-6 ------------------- ------------------
4----------------- ------------------ ------------------- ------------------

------------------- ------------------ ------------------ -------------------
------------------- ------------------ ------------------ -------------------
9-8-7-6----5-10-9-8 9-8-7-6----5-6-7-8 9-8-7-6----7-6-5-4 5-6-7-8----9-10-9-8
------------------- ------------------ ------------------ -------------------
------------------- ------------------ ------------------ -------------------
------------------- ------------------ ------------------ -------------------

------------------ ------------------ --------------------- -------------------
------------------ -----------5-7-8-9 10-9-8-7----6-11-10-9 10-9-8-7----6-7-8-9
9-8-7-6----7-6-5-4 5-6-7-8----------- --------------------- -------------------
------------------ ------------------ --------------------- -------------------
------------------ ------------------ --------------------- -------------------
------------------ ------------------ --------------------- -------------------

------------------- ------------------- ------------------- ---------------------
10-9-8-7----6-7-8-9 10-9-8-7----6-7-8-9 10-9-8-7----8-7-6-5 6-7-8-9----10-11-10-9
------------------- ------------------- ------------------- ---------------------
------------------- ------------------- ------------------- ---------------------
------------------- ------------------- ------------------- ---------------------
------------------- ------------------- ------------------- ---------------------

------------------- ---------10----12-13-12-11 12-11-10-9----8-13-12-11 12-11-10-9----8-9-10-11
10-9-8-7----6-7-8-9 10-12-13------------------ ------------------------ -----------------------
------------------- -------------------------- ------------------------ -----------------------
------------------- -------------------------- ------------------------ -----------------------
------------------- -------------------------- ------------------------ -----------------------
------------------- -------------------------- ------------------------ -----------------------

12---------------8-9 10-9-8-------8--------- --------------8-9-10-11 12-13-12-11----12-13-12-11
---9-10----11-12---- -------12------12-11-10 9-10-11-12------------- --------------------------
-------------------- ----------------------- ----------------------- --------------------------
-------------------- ----------------------- ----------------------- --------------------------
-------------------- ----------------------- ----------------------- --------------------------
-------------------- ----------------------- ----------------------- --------------------------

12---------------8-9 10-9-8-------8--------- --------------8-9-10-11 12-13-12-11----12-14-15-16
---9-10----11-12---- -------12------12-11-10 9-10-11-12------------- --------------------------
-------------------- ----------------------- ----------------------- --------------------------
-------------------- ----------------------- ----------------------- --------------------------
-------------------- ----------------------- ----------------------- --------------------------
-------------------- ----------------------- ----------------------- --------------------------

17-16-15-14----15-14-13-12 13-12-11-10----9-8-7-6 5-4-3-2----3-2-1-0 1-0---------------
-------------------------- ---------------------- ------------------ ----4-3----2-1----
-------------------------- ---------------------- ------------------ ---------------4-3
-------------------------- ---------------------- ------------------ ------------------
-------------------------- ---------------------- ------------------ ------------------
-------------------------- ---------------------- ------------------ ------------------

------------------ ------------------ 0-1-0------0-1-0-- 0-1-0------0-2-3-4
------------------ ---------------2-3 ------4----------4 ------4-----------
2-3-2-1----2-3-2-1 2-3-2-1----2-4---- ------------------ ------------------
------------------ ------------------ ------------------ ------------------
------------------ ------------------ ------------------ ------------------
------------------ ------------------ ------------------ ------------------

5----------- ------------------ --------------------- 8-9-10-11----12-14-15-16
------------ ------------------ 5-6-7-8----9-10-11-12 ------------------------
------------ 1-2-3-4----5-6-7-8 --------------------- ------------------------
-----2-3-4-5 ------------------ --------------------- ------------------------
------------ ------------------ --------------------- ------------------------
------------ ------------------ --------------------- ------------------------

17----5 -
------5 -
------5 -
------- 7
------- -
------- -

Права на тексты некоторых песен принадлежат компании ООО "Контент и право" Все тексты песен являются собственностью их автора.
Сайт создан в студии Далим
© 2004-2020 Akkords.NET