Музыка, аккорды для гитары, тексты песен и GTP самых популярных исполнителей на Akkords.NET
Подборки аккордов для гитары, табулатур, GTP на www.akkords.net
Поиск аккордов
 Аккорды и тексты песен Классические — Моцарт. "Симфония №40 g-moll"
GTP к тексту песен : Отсутствует
Я хочу, чтобы добавили GTP этой песне

Классические — Моцарт. "Симфония №40 g-moll"

2 --4-3-3---4-3-3---4-3-3---11~--11-10-8---8-6-4----4-3-1-1-----------|
3 --------------------------------------------------------------------|
4 --------------------------------------------------------------------|
5 --------------------------------------------------------------------|
6 --------------------------------------------------------------------|

1 --------------------------------------------------------------------|
2 --3-1-1---3-1-1---3-1-1---10~--10-8-7---7-4-3----3-1----------------|
3 -----------------------------------------------------3-3------------|
4 --------------------------------------------------------------------|
5 --------------------------------------------------------------------|
6 --------------------------------------------------------------------|

1 --------------------------------------------------------------------|
2 –-11-10-10-13---7-10-8-3~--–11-10-10-13---7-10-8~--11~--10-8-6-4-3--|
3 --------------------------------------------------------------------|
4 --------------------------------------------------------------------|
5 --------------------------------------------------------------------|
6 --------------------------------------------------------------------|

1 --------------------------------------------------------------------|
2 –-------------------------------------------------------------------|
3 --------6----5-3-2---7----6---7---6---7---6----7-6-7-6-7------------|
4 --4-5-7-8----------5-4----5---4---5---4---5----4-5-4-5-4------------|
5 --------------------------------------------------------------------|
6 --------------------------------------------------------------------|

Права на тексты некоторых песен принадлежат компании ООО "Контент и право" Все тексты песен являются собственностью их автора.
Сайт создан в студии Далим
© 2004-2020 Akkords.NET