Музыка, аккорды для гитары, тексты песен и GTP самых популярных исполнителей на Akkords.NET
Подборки аккордов для гитары, табулатур, GTP на www.akkords.net
Поиск аккордов
 Аккорды и тексты песен Классические — Зеленые рукава
GTP к тексту песен : Отсутствует
Я хочу, чтобы добавили GTP этой песне

Классические — Зеленые рукава

У меня, как видите, хромает оформление (части), но я думаю, вы разберётесь

Пояснения:

Пальцы 1-указательный
2-средний
3-безымянный
4-мизинец

Аккорд Am* - это Am c открытой 3-ей струной (соответственно зажимается
1 и 2 пальцами)
Лады, которые следует зажимать мизинцем, обозначены цифрой 4, с остальными
пальцами не трудно разобраться самостоятельно
Если играть композицию очень быстро, то для лаконичного завершения каждой
из частей советую играть также и звуки обозначенные в скобках.
Если очень хорошо освоить эту композицию, то постепенно будут появляться
собственные вариации, поэтому предлагаю вам только её основные части.
Удачи!
4
Am* 4 3

1||------------0--1-0--|--------------------|-------------------------|
2||------1--3--1-------|--3--0--------0--1--|------------0------------|
3||--2---2-------------|--0-----0---2----2--|-2--2--1-2-----1---------|
4||--------------------|--------0-----------|------------------2------|
5||------0-----3-------|-----------------0--|----0--------------------|
6||--------------------|--3-----3-----------|------------0-------(0)--|

Am* 4 4
3 4

1||------------0--1-0--|-------------------|--------------------------|
2||------1--3--1-------|-3--0--------0--1--|-0------------------------|
3||--2---2-------------|-0-----0---2----2--|----2--1-----1--2--2—(2)--|
4||--------------------|-------0-----------|----------4-----2--2—(2)--|
5||------0-----3-------|----------------0--|----------------0--0—(0)--|
6||--------------------|-3-----3-----------|-------0------------------|
4 4 4
3 3 3

1||--3---3--2-0--|-------------------|-------------------------|
2||--0---0-------|-3--0--------0--1--|------------0------------|
3||--0---0-------|-0-----0---2----2--|-2--2--1-2-----1---------|
4||--------------|-------0-----------|------------------2------|
5||--------------|----------------0--|----0--------------------|
6||--3---3-------|-3-----3-----------|------------0-------(0)--|
1||--3---3--2-0--|-------------------|-----------------------|
2||--0---0-------|-3--0--------0--1--|-0---------------------|
3||--0---0-------|-0-----0---2----2--|----2--1-----1--2---2—-|
4||--------------|-------0-----------|----------4-----2---2—-|
5||--------------|----------------0--|----------------0---0—-|
6||--3---3-------|-3-----3-----------|-------0---------------|

По всем вопросам обращайтесь Alex_pochta83@mail.ru

Права на тексты некоторых песен принадлежат компании ООО "Контент и право" Все тексты песен являются собственностью их автора.
Сайт создан в студии Далим
© 2004-2020 Akkords.NET