Музыка, аккорды для гитары, тексты песен и GTP самых популярных исполнителей на Akkords.NET
Подборки аккордов для гитары, табулатур, GTP на www.akkords.net
Поиск аккордов
 Аккорды и тексты песен Классические — Бетховен. "К Элизе"
GTP к тексту песен : Отсутствует
Я хочу, чтобы добавили GTP этой песне

Классические — Бетховен. "К Элизе"

e|-0---0---0---------------------------------------|
B|---4---4---0-3-1-------------0---------0-1-------|
G|-----------------2---------2-----1---1-----------|
D|-------------------2-----2-----2---2-------2---2-|
A|-----------------0---0-3-----------------0---0---|
E|-----------------------------0-------------------|

Am E E7 Am
e|-0---0---0-------------------------------------|
B|---4---4---0-3-1-------------0-------1-0-------|
G|-----------------2---------2-----1-------2-----|
D|-------------------2-----2-----2---0-----------|
A|-----------------0---0-3-----------------0---0-|
E|-----------------------------0-------------0---|

Am E Am
e|-0---0---0---------------------------------------|
B|---4---4---0-3-1-------------0---------0-1-------|
G|-----------------2---------2-----1---1-----------|
D|-------------------2-----2-----2---2-------2---2-|
A|-----------------0---0-3-----------------0---0---|
E|-----------------------------0-------------------|
Am E E7 Am
e|-0---0---0---------------------------------------|
B|---4---4---0-3-1-------------0-------1-0-------0-|
G|-----------------2---------2-----1-------2-------|
D|-------------------2-----2-----2---0-------------|
A|-----------------0---0-3-----------------3---0---|
E|-----------------------------0-------------0-----|

e|-----0-------1-0---------0--------------------0-------0---0-------------|
B|-1-3-----1-------3---0-----3-1-------3-1-0------------------------------|
G|-------0---0-------0-------------2--------------------------------------|
D|-----------------------3-------2---2--------2-----2-2---2---1-2-1-2-1-2-|
A|-----3-----------------------0------------------------------------------|
E|-----------------3-----------------------0------0-----------------------|

Am E Am
e|-0---0---0---------------------------------------|
B|---4---4---0-3-1-------------0---------0-1-------|
G|-----------------2---------2-----1---1-----------|
D|-------------------2-----2-----2---2-------2---2-|
A|-----------------0---0-3-----------------0---0---|
E|-----------------------------0-------------------|

Am E E7 Am
e|-0---0---0-------------------------------------|
B|---4---4---0-3-1-------------0-------1-0-------|
G|-----------------2---------2-----1-------2-----|
D|-------------------2-----2-----2---0-----------|
A|-----------------0---0-3-----------------3---0-|
E|-----------------------------0-------------0---|

Права на тексты некоторых песен принадлежат компании ООО "Контент и право" Все тексты песен являются собственностью их автора.
Сайт создан в студии Далим
© 2004-2020 Akkords.NET