Музыка, аккорды для гитары, тексты песен и GTP самых популярных исполнителей на Akkords.NET
Подборки аккордов для гитары, табулатур, GTP на www.akkords.net
Поиск аккордов
 Аккорды и тексты песен Классические — Tanquillo-Tanqui
GTP к тексту песен : Отсутствует
Я хочу, чтобы добавили GTP этой песне

Классические — Tanquillo-Tanqui

Чтобы выяснить понравится Вам это произведение или нет, попробуйте
сыграть II часть. Она чем-то напоминает Queen,новское Innuendo.

Пояснения

Цифры над табой - обозначения пальцев, которыми следует зажимать струны
1-указательный
2-средний
3-безымянный
4-мизинец

Буква п – небольшая пауза

Двойная стрелка (под “A-2 раза”)-испанский бой (играется как бы всеми пальцами поочерёдно)
В конце произведения по струнам следует провести большим пальцем
(где 10 лад и длинная стрелка перед ним)
Рекомендую играть произведение как можно быстрее
I часть

A A# A A#
i p i i p i i p i i p i i p i p i i i p i i
1------------------- ------------------- ---------------------- --------------------
2------------------- ------------------- ---------------------- --------------------
3------------------- ------------------- ---------------------- --------------------
4------------------- ------------------- ---------------------- --------------------
5------------------- ------------------- ---------------------- -----------------0--
6------------------- ------------------- ---------------------- --------------------

Dm C* B* A
п 2 3 2 0 3 п 0 2 0 3 п 3 0 3 1 0 2 3 4 0 п
1-----1------------- ----0-------------- ---------------------- ----------0---------
2-----3------------- ----1-------------- -----3---------------- --------2-----------
3-----2------------- ----0-------------- -----3---------------- ------2-------------
4-0---------2-3-2-0- ----------0-2-0---- -----3-------0-------- ----2---------------
5------------------- -3--------------3-- --1--------3---3-1---- --0-------------0---
6------------------- ------------------- ---------------------- --------------------
II часть

A-2 раза
0 2 3 2 0 3 2 0 3 0 2 0 3 2 0 3 1 3 0 3 2 0 3 1 исп.бой i p i
1------------------- ------------------- ---------------------- --------------------
2------------------- ------------------- ---------------------- --------------------
3----------0-------- ------------------- ---------------------- --------------------
4-0-2-3-2----3-2-0-- ----0-2-0--3-2-0--- ------0----2-0-------- --------------------
5------------------- --3--------------3- --1-3---3------3-1---- -0------------------
6------------------- ------------------- ---------------------- --------------------
III часть

A-2 раза A-2 раза
3 0 1 0 3 1 0 исп.бой i p i 3 0 1 0 0 3 2 0 исп.бой i p i
1------------------- ------------------- ---------------------- --------------------
2------------------- ------------------- ---------------------- --------------------
3------------------- ------------------- -----------0---------- --------------------
4-------0----------- ------------------- --------0----3-2-0---- -2------------------
5---0-1----3-1-0---- -0----------------- ----0-1--------------- --------------------
6-3--------------3-- ------------------- --3------------------- --------------------

далее повтор I части
IV часть
малое баррэ
на II ладу
A 4
1 3 0 2 3 2 0 3 2 0 4 3 2 0 1 3 0 2 3 2 0 3 2 0 3 1 1
1------------------- ------------------- -------------------------- -------5----------
2------------------- ----------2-------- -------------------------- -------2----------
3------------------- -0----------2------ --------------0----------- -------2----------
4-------0-2-3-2----- --3-2-0-------2---- -----0-2-3-2----3-2-0----- -------2----------
5---1-3------------- ----------------0-- -1-3------------------3-1- --0---------------
6------------------- ------------------- -------------------------- ------------------


V часть

Dm A
4 3
0 2 1 0 3 0 1 4 0 1 0 3 3 1 3 0 0 1
1---5-3-1--0---0---- --1--------------0- --1-0----------- -----------------0-1------
2------------3------ ---------------3--- ------3--3-1---- --3-----------------------
3------------------- ------------------- -------------3-- --------------------------
4---0--------------- ------------------- ---------------- --------------------------
5------------------- ------------------- ---------------- --0-----------------------
6------------------- ------------------- ---------------- --------------------------
3 1 0 1 0 3 0 3 1 3 1 3 2 3 2 0 3 2
1--3-1-0--1-0---- --0------------- ----------------------
2-------------3-- ----3-1--3-1---- ----------------------
3---------------- -------------3-- --2-3-2---0-----------
4---------------- ---------------- ------------3-2-------
5---------------- ---------------- ----------0-----------
6---------------- ---------------- --0-------------------
VI часть

баррэ на
Dm C* B* II ладу
п 2 3 2 0 3 п 0 2 0 3 п 3 0 3 1 0
1-----1------------- ----0-------------- ---------------------- -----5-------
2-----3------------- ----1-------------- -----3---------------- -----2-------
3-----2------------- ----0-------------- -----3---------------- -----2-------
4-0---------2-3-2-0- ----------0-2-0---- -----3-------0-------- -----2-------
5------------------- -3--------------3-- --1--------3---3-1---- --0----------
6------------------- ------------------- ---------------------- -------------
4
2
3
1---9--------10-----
2---8--------10-----
3---9--------10-----
4-------------0-----
5-------------0-----
6-------------0-----
P.S. Не уверен, что автофигуры будут перекинуты на сайт, а обозначать их письменно
неохота. Короче если, что не понятно пишите Alex_pochta83@mail.ru

Права на тексты некоторых песен принадлежат компании ООО "Контент и право" Все тексты песен являются собственностью их автора.
Сайт создан в студии Далим
© 2004-2020 Akkords.NET