Музыка, аккорды для гитары, тексты песен и GTP самых популярных исполнителей на Akkords.NET
Подборки аккордов для гитары, табулатур, GTP на www.akkords.net
Поиск аккордов
 Аккорды и тексты песен Классические — Mozart W.A. "Turkish Delight"
GTP к тексту песен : Отсутствует
Я хочу, чтобы добавили GTP этой песне

Классические — Mozart W.A. "Turkish Delight"

B||--------------|--1-----3p1-0h1-|------------4---|------9-------9---|
G||------4p2-1h2-|----------------|----------------|------------------|
E||--------------|-----0--0---0---|-----0--0---0---|------0---0---0---|
A||--------------|--0-------------|--0-------------|--0---------------|
E||--------------|----------------|----------------|------------------|

--8-----5--8--|--7--------------|--7--------------|--7-------------|
--------5--5--|--10--10--8--10--|--10--10--8--10--|--10--10--8--7--|
--------------|--12--11--9--11--|--12--11--9--11--|--12--11--9--8--|
-----0--0--0--|------0---0--0---|------0---0--0---|------0---0-----|
--0-----------|-----------------|-----------------|----------------|
--------------|--0--------------|--0--------------|--0----------7--|

--0------------|----------------|--0-----1p0---0-|--7p5---5-7p5---5-|
---------------|--1-----3p1-0h1-|------------4---|------9-------9---|
-------4p2-1h2-|----------------|----------------|------------------|
---------------|-----0--0---0---|-----0--0---0---|------0---0---0---|
---------------|--0-------------|--0-------------|--0---------------|
--0------------|----------------|----------------|------------------|

--8-----5--8--|--7--------------|--7--------------|--7-------------|
--------5--5--|--10--10--8--10--|--10--10--8--10--|--10--10--8--7--|
--------------|--12--11--9--11--|--12--11--9--11--|--12--11--9--8--|
-----0--0--0--|------0---0--0---|------0---0--0---|------0---0-----|
--0-----------|-----------------|-----------------|----------------|
--------------|--0--------------|--0--------------|--0----------7--|

--0----0--1--|--3--3--5p3-----|--------0--1--|--3--3--5p3-----|-------------|
-------1--3--|--5--5--5---6p5-|--3-----1--3--|--5--5--5---6p5-|--3----1--3--|
-------------|-----5------5---|--0--0--------|-----5--0---5---|--0----2--4--|
-------------|--------0-------|--------------|----------------|-------------|
-------------|--3-------------|--------------|--3-------------|-------------|
--0----------|----------------|--------------|----------------|-------------|

--0--0--1p0-----|--------------|--0--0--1p0-----|---------------|
--1--1------3p1-|--0-----1--3--|--1--1------3p1-|--0------------|
-----2------2---|-----1--2--4--|-----2----------|-------4p2-1h2-|
----------------|--0-----------|----------------|--0------------|
--0-----3-------|--------------|--0-----3-------|---------------|
----------------|--------------|----------------|---------------|

----------------|--0-----1p0---0-|--7p5---5-7p5---5-|--8-------------|
--1-----3p1-0h1-|------------4---|------9-------9---|--------10--12--|
----------------|----------------|------------------|--------8---8---|
-----0--0---0---|-----0--0---0---|------0-------0---|-----8------8---|
--0-------------|--0-------------|--0-------0-------|--8-----8-------|
----------------|----------------|------------------|----------------|

--8--7--5--4--|--5-----------|--------------|--------5--7--|--9----5--7--|
--5--5--6--6--|--5--5--6--3--|--1-----0-----|--------------|-------------|
--------------|-----2--4--4--|--2-----1-----|--2-----2--4--|--6----2--4--|
-----0-----4--|-----0-----4--|-----0-----0--|-----0--------|--0----0--0--|
--0-----5-----|--3-----5-----|--0-----------|--0-----------|--0----0--0--|
--------------|--------------|--------0-----|--------------|-------------|

--9--7--5--4--|--2--4--5--7--|--4--0--5--7--|--9----5--7--|--9--7--5--4--|
--------------|--------------|--------------|-------------|--------------|
--6--4--2--1--|-----------4--|--1-----2--4--|--6----2--4--|--6--4--2--1--|
--0--0--0--0--|--2--4--5-----|-----0--------|--0----0--0--|--0--0--0--0--|
--0--0--0--0--|--5--5--6-----|--------------|--0----0--0--|--0--0--0--0--|
--------------|--------------|--0-----------|-------------|--------------|

--2--7--4--0--|--5----9h10p9----|-------------------------|------4-----------|
--------------|--------------12-|--10h12-10p9----10-------|--6h7---6-----6---|
-----4--1-----|-----------------|-------------11----13p11-|----------6h8---6-|
--2--------0--|-----------------|--------9----9-----9-----|------4---4---4---|
--5-----2-----|--0--------------|--9----------------------|--4---------------|
--------0-----|-----------------|-------------------------|------------------|

-------------------------|--9p8-9p8-9h10-9----|-------------------------|
--------------10p9-10h12-|-----------------12-|--10h12-10p9----10-------|
--11p10-11h13------------|--------------------|-------------11----13p11-|
--------9-----9----9-----|------9---9----9----|--------9----9-----9-----|
--9----------------------|--8-----------------|--9----------------------|
-------------------------|--------------------|-------------------------|

------4-----------|------------------|---------------|------------2-4-5-|
--5h7---5-----5---|--4h5-7-4-----4---|-------5-3p2---|------2-3-5-------|
----------6h8---6-|----------5h6---5-|--6----------4-|--2h4-------------|
------4---4---4---|------4---4---4---|---------------|------0---0---0---|
--4---------------|------------------|--4------------|--0---------------|
------------------|--4---------------|---------------|------------------|

--5p4-2-----------|------------2-4-5-|--6--7--0-------|------------2-4-5-|
--------5-5p3-2---|------2-3-5-------|----------3-2---|------2-3-5-------|
----------------4-|--2h4-------------|--------------4-|--2h4-------------|
------2---2---2---|------0---0---0---|--0--4--4---4---|------0---0---0---|
--2---------------|--0---------------|----------------|--0---------------|
------------------|------------------|----------------|------------------|

--5p4-2-----------|----0-------------|-------9h10p9----|
--------5-5p3-2---|--2-----2-0-3---0-|--------------12-|
----------------4-|--2---2-------1---|--2--------------|
------2---2---2---|------2-------0---|-----------------|
--2---------------|----------5-------|--0--------------|
------------------|------------------|-----------------|

-------------------------|------4-----------|-------------------------|
--10h12-10p9----10-------|--6h7---6-----6---|--------------10p9-10h12-|
-------------11----13p11-|----------6h8---6-|--11p10-11h13------------|
--------9----9-----9-----|------4---4---4---|--------9-----9----9-----|
--9----------------------|--4---------------|--9----------------------|
-------------------------|------------------|-------------------------|

--9p8-9p8-9p8-9----|--10p9-10p9-10p9-10p9-|--10p9-7---------7---|
----------------11-|----------------------|---------10-9h10---9-|
-------------------|----------------------|---------------------|
------9---9---9----|-------10---10---10---|-------7---------7---|
--8----------------|--9-------------------|---------------------|
-------------------|----------------------|--7---------9--------|

--------9--------4---|--2--------||
--10h12---10-6h7---6-|-----------||
---------------------|-----------||
--------9--------4---|--2--------||
--9----------4-------|-----------||
---------------------|-----------||

Права на тексты некоторых песен принадлежат компании ООО "Контент и право" Все тексты песен являются собственностью их автора.
Сайт создан в студии Далим
© 2004-2020 Akkords.NET