Музыка, аккорды для гитары, тексты песен и GTP самых популярных исполнителей на Akkords.NET
Подборки аккордов для гитары, табулатур, GTP на www.akkords.net
Поиск аккордов
 Аккорды и тексты песен Классические — Matteo Carcassi. "Capriccio (p.102)"
GTP к тексту песен : Отсутствует
Я хочу, чтобы добавили GTP этой песне

Классические — Matteo Carcassi. "Capriccio (p.102)"


E||----------1---------------1-------|----------1-----------------------|
B||------3-------3-------2-------2---|------3-------3-----3---3---3---3-|
G||----2---2---2---2---3---3---3---3-|----2---2---2---2-----------------|
D||--0---------------0---------------|--0---------------0---2---3---0---|
A||----------------------------------|----------------------------------|
E||----------------------------------|----------------------------------|

----------0---------------1-------|----------0-----------------------|
------2-------2-------3-------3---|------2-------2-------------------|
----2---2---2---2---2---2---2---2-|----2---2---2---2---2---2---2---2-|
----------------------------------|----------------------------------|
--0---------------0---------------|--0---------------0---1---4---0---|
----------------------------------|----------------------------------|

----------1-----------------------|----------0-----------------------|
------3-------3-----3---3---3---3-|------1-------1-----1---1---1---1-|
----2---2---2---2-----------------|----3---3---3---3-----------------|
--0---------------0---3---2---0---|----------------------0---2-------|
----------------------------------|--3---------------3-----------3---|
----------------------------------|----------------------------------|

----------1---------------1-------|----------0---------------0-------|
------1-------1-------3-------3---|------3-------3-------2-------2---|
----2---2---2---2---3---3---3---3-|----3---3---3---3---2---2---2---2-|
--3-------------------------------|----------------------------------|
------------------1---------------|------------------0---------------|
----------------------------------|--3-------------------------------|

----------1-----------------------|----------3---------------3-------|
------3-------3-----3---3---3---3-|------2-------2-------2-------2---|
----2---2---2---2-----------------|----3---3---3---3---2---2---2---2-|
--0---------------0---3---2---0---|--0---------------0---------------|
----------------------------------|----------------------------------|
----------------------------------|----------------------------------|

----------1---------------1-------|----------0---------------0-------|
------3-------3-------3-------3---|------3-------3-------2-------2---|
----2---2---2---2---3---3---3---3-|----3---3---3---3---2---2---2---2-|
--0-------------------------------|----------------------------------|
------------------1---------------|------------------0---------------|
----------------------------------|--3-------------------------------|

----------1-------------1-------3-|----------1-------------1-------0-|
------3-------3-------3-------2---|------3-------3-------3-------2---|
----2---2---2---2---2-------3-----|----2---2---2---2---2-------2-----|
--0---------------0-------0-------|--0---------------0-------0-------|
----------------------------------|----------------------------------|
----------------------------------|----------------------------------|

----------1-------------1-------3-|----------1-------------1-------0-|
------3-------3-------3-------2---|------3-------3-------3-------2---|
----2---2---2---2---2-------3-----|----2---2---2---2---2-------2-----|
--0---------------0-------0-------|--0---------------0-------0-------|
----------------------------------|----------------------------------|
----------------------------------|----------------------------------|

----------1-----------------------|----------1-----------------------|
------3-------3-------3-------3---|------3-------3-------3-------3---|
----2---2---2---2---2---2---2---2-|----2---2---2---2---2---2---2---2-|
--0-------------------------------|--0-------------------------------|
--------------------------0-------|--------------------------0-------|
------------------1---------------|------------------0---------------|

--1----------------|---||
--3----------------|---||
--2----------------|---||
--0----------------|---||
-------------------|---||
-------------------|---||

Права на тексты некоторых песен принадлежат компании ООО "Контент и право" Все тексты песен являются собственностью их автора.
Сайт создан в студии Далим
© 2004-2020 Akkords.NET