Музыка, аккорды для гитары, тексты песен и GTP самых популярных исполнителей на Akkords.NET
Подборки аккордов для гитары, табулатур, GTP на www.akkords.net
Поиск аккордов
 Аккорды и тексты песен Классические — Matteo Carcassi. "Allegro"
GTP к тексту песен : Отсутствует
Я хочу, чтобы добавили GTP этой песне

Классические — Matteo Carcassi. "Allegro"

B:------------------------------------------------------------3--------1---
G:----2-2-2----2-2-2----2-2-2----2-2-2----2---2----2---2----1---1----2---2-
D:--------------------3--------2--------0----------------------------------
A:--0--------3-----------------------------------3--------2--------0-------
E:-------------------------------------------------------------------------

E:---------------------------------------------------------------------0---
B:------0--------0--------0--------0--------1--------1--------0------------
G:----2---2----2---2----2---2----2---2----2---2----2---2----2---2----1---1-
D:--0--------1--------2--------3--------2-----------------2----------------
A:-------------------------------------------------------------------------
E:-----------------------------------------------0-----------------0-------

E:------------------------------------------1--------0---------------------
B:------------------------------------------------------------3--------1---
G:----2-2-2----2-2-2----2-2-2----2-2-2----2---2----2---2----1---1----2---2-
D:--------------------3--------2--------0----------------------------------
A:--0--------3-----------------------------------3--------2--------0-------
E:-------------------------------------------------------------------------
-
E:-----------------------------------0--------0-1-0---0-5----
B:------0--------0--------1--------0--------1-------4--------
G:----2---2----2---2----2---2----1--------2------------------
D:--0--------1--------2--------------------------------------
A:--------------------------------------0--------------------
E:-----------------------------0-----------------------------

Одна часть

Права на тексты некоторых песен принадлежат компании ООО "Контент и право" Все тексты песен являются собственностью их автора.
Сайт создан в студии Далим
© 2004-2020 Akkords.NET