Музыка, аккорды для гитары, тексты песен и GTP самых популярных исполнителей на Akkords.NET
Подборки аккордов для гитары, табулатур, GTP на www.akkords.net
Поиск аккордов
 Аккорды и тексты песен Классические — Green sleeves
GTP к тексту песен : Отсутствует
Я хочу, чтобы добавили GTP этой песне

Классические — Green sleeves

воспоминания. Девушки любят эту мелодию. (по крайней мере моя). Пишу табами, так как ноты
не все знают. И так, поехали, размер 68.
Em D Em H Em A7 D Hm Em H7 Em
E|----------------------------|--------------------------|------------------------------|-------------------|
H|----------------------------|--------------------------|------------------------------|-------------------|
G|-------2--4-5-4--2----------|--------------------------|---------2--4-6-4--2----------|-------------------|
D|-2--5---------------4-----2-|--4--5--2-2-1--2--4--1----|---2--5---------------4-----2-|-4-5-4-2-----------|
A|-----------------------5----|------------------------2-|-------------------------5----|---------6-4-6-7--7|
E|----------------------------|--------------------------|------------------------------|-------------------|


G D Em H G D Hm Em H7 Em Em
E|-----------------------|-------------------------|-----------------------|-------------------|
H|-----------------------|-------------------------|-----------------------|-------------------|
G|-7--7--6-4-------------|-------------------------|-7--7--6-4-------------|-------------------|
D|------------7--4-------|-4--5--2-2-1--2--4--1----|------------7--4-------|-4-5-4-2-----------|
A|------------------5--7-|-----------------------2-|------------------5--7-|---------6-4-6-7--7|
E|-----------------------|-------------------------|-----------------------|-------------------|
Em D
Alas! My love you do me wrong,
Em H
To cast me off discourteously
Em A7 D Hm
And I have loved you so long,
Em H Em
Delighting in you comp’ny

G D
Green sleeves was all my joy
Em H
Green sleeves was my delight,
G D Hm
Green sleeves was heart of gold
Em H7 Em
And who but my lady Green sleeves.

Дерзайте ребята!!!

Права на тексты некоторых песен принадлежат компании ООО "Контент и право" Все тексты песен являются собственностью их автора.
Сайт создан в студии Далим
© 2004-2020 Akkords.NET