Музыка, аккорды для гитары, тексты песен и GTP самых популярных исполнителей на Akkords.NET
Подборки аккордов для гитары, табулатур, GTP на www.akkords.net
Поиск аккордов
 Аккорды и тексты песен Классические — Fernando Sor. "Etude n°5 en Si mineur"
GTP к тексту песен : Отсутствует
Я хочу, чтобы добавили GTP этой песне

Классические — Fernando Sor. "Etude n°5 en Si mineur"

B||--3-----------3-----|-----3-----3-----3--|-----2-----2-----2--|
G||-----4-----4-----4--|--------------------|--------------------|
D||--------4-----------|--------4-----------|--------4-----------|
A||--2-----------------|--------------------|--------------------|
E||--------------------|--------------------|--------------------|

--------------------|--------------------|--------------------|
--3-----------3-----|--2-----------2-----|--3-----------3-----|
-----4-----4-----4--|-----3-----3-----3--|-----4-----4-----4--|
--------4-----------|--------4-----------|--------4-----------|
--------------------|--------------------|--------------------|
--------------------|--------------------|--------------------|

--0-----------1-----|--2-----------------|--------------------|
-----0-----0-----0--|-----2-----2--------|--3-----------3-----|
--------0-----------|--------3--------3--|-----4-----4-----4--|
--------------------|--------------4-----|--------4-----------|
--------------------|--------------------|--2-----------------|
--------------------|--------------------|--------------------|

--2-----------2-----|--0-----------0-----|--------------------|
-----3-----3-----3--|-----2-----2-----2--|--3-----------3-----|
--------------------|--------------------|-----4-----4-----4--|
--------4-----------|--------4-----------|--------5-----------|
--------------------|--------------------|--------------------|
--------------------|--------------------|--------------------|

--0-----------0-----|--------------------|--------------------|
-----2-----2-----2--|--3-----------3-----|--2-----------2-----|
--------0-----------|-----4-----4-----4--|-----3-----3-----3--|
--------------2-----|--------4-----------|--------4-----------|
--------------------|--------------------|--------------------|
--------------------|--------------------|--------------------|

-------------------|--2-----------2-----|--0-----------0-----|
-----3-------------|-----3-----3-----3--|-----2-----2-----2--|
--4--------4-------|--------------------|--------------------|
--------4----------|--------4-----------|--------4-----------|
--------------2----|--------------------|--------------------|
-------------------|--------------------|--------------------|

--------------------|--------------------|--------------2-----|
--3-----------3-----|--2-----------2-----|--3--------------3--|
-----4-----4-----4--|-----3-----3-----3--|-----4-----4--------|
--------4-----------|--------4-----------|--------4-----------|
--------------------|--------------------|--------------------|
--------------------|--------------------|--------------------|

--0-----------------|--------------------|-----2-------------|
-----2--------2-----|--3-----------3-----|--2--------2-------|
-----------3-----3--|-----4-----4-----4--|--------3----------|
--------4-----------|--------4-----------|--------------4----|
--------------------|--------------------|-------------------|
--------------------|--------------------|-------------------|

--------------------|--0-----------------|--------------------|
--3-----------4-----|--------------0-----|--2-----------2-----|
-----2-----2-----2--|-----0-----0-----0--|-----0-----0-----0--|
--------4-----------|--------2-----------|--------2-----------|
--2-----------------|--------------------|--0-----------------|
--------------------|--0-----------------|--------------------|

--------------------|--------------------|--3-----0-----------|
--3-----------3-----|--1-----------1-----|--------------1-----|
-----------2-----2--|-----0-----0-----0--|-----0-----0-----0--|
--------4-----------|--------2-----------|--------2-----2-----|
-----5--------------|--------------------|--------------------|
--------------------|--0-----------------|--------------------|

--------------------|-----------------2--|--------------------|
--0-----------0-----|--------------2-----|--3-----------3-----|
-----1-----1-----1--|--3--------3--------|-----4-----4-----4--|
--------0-----------|--------4-----------|--------4-----------|
--------------------|-----4--------------|--2-----------------|
--1-----------------|--2-----------------|--------------------|

--2-----------2-----|--0-----------0-----|--------------------|
-----3-----3-----3--|-----2-----2-----2--|--3-----------3-----|
--------------------|--------------------|-----4-----4-----4--|
--------4-----------|--------4-----------|--------4-----------|
--------------------|--------------------|--------------------|
--------------------|--------------------|--------------------|

--------------------|--------------------|--0-----------1-----|
--2-----------2-----|--3-----------3-----|-----0-----0-----0--|
-----3-----3-----3--|-----4-----4-----4--|--------0-----------|
--------4-----------|--------4-----------|--------------------|
--------------------|--------------------|--------------------|
--------------------|--------------------|--------------------|

--2-----------------|--2-----------2-----|--4-----------4-----|
-----------2-----2--|-----3-----3-----3--|-----6-----6-----6--|
--------3-----------|--------4-----------|--------4-----------|
-----4--------2-----|--0-----------------|--------------------|
--------------------|--------------------|--4-----------------|
--------------------|--------------------|--------------------|

--6-----------6-----|--7-----------7-----|--3-----------3-----|
-----5-----5-----5--|--------3-----------|-----2-----2-----2--|
--------6-----------|-----4-----4-----4--|--------4-----------|
--4-----------------|--5-----------------|--2-----------------|
--------------------|--------------------|--------------------|
--------------------|--------------------|--------------------|

--2-----------2-----|--------------2-----|---------------|--2-----------2-----|
-----3-----3-----3--|-----2-----2--------|--0------------|-----3-----3-----3--|
--------4-----------|--------3--------3--|---------------|--------------------|
--4-----------------|--------------2-----|--0------------|--------4-----------|
--------------------|--------------------|--2------------|--------------------|
--------------------|--2-----------------|---------------|--------------------|

--0-----------0-----|--------------------|--------------------|
-----2-----2-----2--|--3-----------3-----|--2-----------2-----|
--------------------|-----4-----4-----4--|-----3-----3-----3--|
--------4-----------|--------4-----------|--------4-----------|
--------------------|--------------------|--------------------|
--------------------|--------------------|--------------------|

--------------2-----|--0-----------------|--------------------|
--3--------------3--|-----2--------2-----|--3-----------3-----|
-----4-----4--------|-----------3-----3--|-----4-----4-----4--|
--------4-----------|--------4-----------|--------4-----------|
--------------------|--------------------|--------------------|
--------------------|--------------------|--------------------|

-----2-------------|--------------------|--0-----------------|
--2--------2-------|--3-----------4-----|--------------0-----|
--------3----------|-----2-----2-----2--|-----0-----0-----0--|
--------------4----|--------4-----------|--------2-----------|
-------------------|--2-----------------|--------------------|
-------------------|--------------------|--0-----------------|

--------------------|--------------------|--------------------|
--2-----------2-----|--3-----------3-----|--1-----------1-----|
-----0-----0-----0--|-----------2-----2--|-----0-----0-----0--|
--------2-----------|--------4-----------|--------2-----------|
--0-----------------|-----5--------------|--------------------|
--------------------|--------------------|--0-----------------|

--3-----0-----------|--------------------|-----------------2--|
--------------1-----|--0-----------0-----|--------------2-----|
-----0-----0-----0--|-----1-----1-----1--|--3--------3--------|
--------2-----2-----|--------0-----------|--------4-----------|
--------------------|--------------------|-----4--------------|
--------------------|--1-----------------|--2-----------------|

--------------------|--2-----------2-----|--0-----------0-----|
--3-----------3-----|-----3-----3-----3--|-----2-----2-----2--|
-----4-----4-----4--|--------------------|--------------------|
--------4-----------|--------4-----------|--------4-----------|
--2-----------------|--------------------|--------------------|
--------------------|--------------------|--------------------|

--------------------|--------------------|--------------------|
--3-----------3-----|--2-----------2-----|--3-----------3-----|
-----4-----4-----4--|-----3-----3-----3--|-----4-----4-----4--|
--------4-----------|--------4-----------|--------4-----------|
--------------------|--------------------|--------------------|
--------------------|--------------------|--------------------|

--0-----------1-----|--2-----------------|--2-----------2-----|
-----0-----0-----0--|-----------2-----2--|-----3-----3-----3--|
--------0-----------|--------3-----------|--------4-----------|
--------------------|-----4--------2-----|--0-----------------|
--------------------|--------------------|--------------------|
--------------------|--------------------|--------------------|

--4-----------4-----|--6-----------6-----|--7-----------7-----|
-----6-----6-----6--|-----5-----5-----5--|--------3-----------|
--------4-----------|--------6-----------|-----4-----4-----4--|
--------------------|--4-----------------|--5-----------------|
--4-----------------|--------------------|--------------------|
--------------------|--------------------|--------------------|

--3-----------3-----|--2-----------2-----|--------------2-----|---------------|
-----2-----2-----2--|-----3-----3-----3--|-----2-----2--------|--0------------|
--------4-----------|--------4-----------|--------3--------3--|---------------|
--2-----------------|--4-----------------|--------------2-----|--0------------|
--------------------|--------------------|--------------------|--2------------|
--------------------|--------------------|--2-----------------|---------------|

--------------||
--------------||
--------------||
--------------||
--------------||
--------------||

Права на тексты некоторых песен принадлежат компании ООО "Контент и право" Все тексты песен являются собственностью их автора.
Сайт создан в студии Далим
© 2004-2020 Akkords.NET