Музыка, аккорды для гитары, тексты песен и GTP самых популярных исполнителей на Akkords.NET
Подборки аккордов для гитары, табулатур, GTP на www.akkords.net
Поиск аккордов
 Аккорды и тексты песен Студенческие — А не спеть ли нам песню...
GTP к тексту песен : Отсутствует
Я хочу, чтобы добавили GTP этой песне

Студенческие — А не спеть ли нам песню...

-D-

|-------|--(2)--|-------|1
|-------|-------|--(3)--|2
|-------|--(1)--|-------|3
(0)|-------|-------|-------|4
(?)|-------|-------|-------|5
(X)|-------|-------|-------|6
I II III
- F#7 -

(0)|-------|-------|-------|1
|--(1)--|-------|-------|2
|-------|--(2)--|-------|3
|-------|-------|--(4)--|4
|-------|-------|--(3)--|5
(?)|-------|-------|-------|6
II III IV
- Hm -

|--(1)--|-------|-------|1
|-------|--(2)--|-------|2
|-------|-------|--(4)--|3
|-------|-------|--(3)--|4
(?)|-------|-------|-------|5
(X)|-------|-------|-------|6
II III IV
- G -

|-------|-------|--(4)--|1
|-------|-------|--(3)--|2
(0)|-------|-------|-------|3
(0)|-------|-------|-------|4
|-------|--(1)--|-------|5
|-------|-------|--(2)--|6
I II III
- A -

(0)|-------|-------|-------|1
|-------|--(4)--|-------|2
|-------|--(3)--|-------|3
|-------|--(2)--|-------|4
(0)|-------|-------|-------|5
(?)|-------|-------|-------|6
I II III
А не спеть ли нам песню, про наш курс
Как придумать отмаз на зачет
Убежать бы с трех пар из шести,
Только видно никак, вот облом.

Нам сдавать все зачеты тыщи раз
Нам учить дофига каждый день
Будем с ночи сидеть до утра,
Ведь нормально учить всем нам лень.

Но вдруг выдет когда-то - мы влетим,
И оценки у всех - не-у-дэ,
И учиться отлично захотим,
Чтоб не вылетить нам всем с ФИРЭ

И мы вспыхнем сверхновой су-пер-звез-дой
Наши фото повесят на доске,
Друг за друга держаться не впервой
Вот и все уж конец
А теперь пошли бухать!

Права на тексты некоторых песен принадлежат компании ООО "Контент и право" Все тексты песен являются собственностью их автора.
Сайт создан в студии Далим
© 2004-2019 Akkords.NET