Музыка, аккорды для гитары, тексты песен и GTP самых популярных исполнителей на Akkords.NET
Подборки аккордов для гитары, табулатур, GTP на www.akkords.net
Поиск аккордов
 Аккорды и тексты песен Авторские — Смаглюк Вадим. "Одинокий Волк"
GTP к тексту песен : Отсутствует
Я хочу, чтобы добавили GTP этой песне

Авторские — Смаглюк Вадим. "Одинокий Волк"

>-=1=- -=2=- -=3=- Повторить -=2=- , затем
играть -=4=-
E ||-------------|------------------------------------|-----------|
B ||-------------|------------------------------------|-----------|
G ||-------------|----------0-----------0-----------0-|----------0|
D ||-------------|-------4-----------5-----------7----|-------9---|
A ||----10-----9-|----2-----------3-----------5-------|----7------|
E ||--8-----7----|-0-----------0-----------0----------|-0---------|

>=4=-
E |------------|
B |-----------0|
G |------------|
D |--7-----7---|
A |-----5------|
E |------------|
>

Однажды одинокий волк себя спросил –
«Зачем же я об жизнь свою нож тупил?
Зачем же я остался здесь один в лесу?
Да, чтобы с ветром в унисон выть на луну».

“Я ушел из стаи таких же волков.
У меня был среди них лучший улов.
Я не был изгнан, Я сам избрал себе судьбу.
Да, чтобы с ветром в унистн выть на луну”.

“Одинокие волки не воют вообще,
Но Я не такой, не такой Я как все.
Без свободы Я не смог бы искупить свою вину.
Без ветра Я не смог бы больше выть на луну”.

Так одинокий волк по свету бродил.
Уйдя от стаи он считал себя полным сил.
Вольным волком, обревшим душу свою.
Волк по свету бродил и выл на луну.

«Зачем бродил он?» – спросите вы.
Никто не знает до этой поры.
Но он так выбрал, избрал себе судьбу.
Да чтобы с ветром в унисон выть на луну.

Права на тексты некоторых песен принадлежат компании ООО "Контент и право" Все тексты песен являются собственностью их автора.
Сайт создан в студии Далим
© 2004-2024 Akkords.NET