Музыка, аккорды для гитары, тексты песен и GTP самых популярных исполнителей на Akkords.NET
Подборки аккордов для гитары, табулатур, GTP на www.akkords.net
Поиск аккордов
 Аккорды и тексты песен Авторские — Гуч Виталий. "Тополя"
GTP к тексту песен : Отсутствует
Я хочу, чтобы добавили GTP этой песне

Авторские — Гуч Виталий. "Тополя"

http://www.russen-welt.de/ http://www.kevin-frank.de/

Перебор
Em H7 Em Em
1---------0--------------2----------------0-------------0-------
2-------0---0----------2---2------------0---0---------0---0-----
3-----1-------1------2-------2--------1-------1-----1-------1---
4------------------1------------------------------2-------------
5---2-------------------------------2---------------------------
6---------------------------------------------------------------
тополя тополя все в пуху ………………

Em H7 Em Em
1---------0--------------2----------------0-------------0-------
2-------0---0----------2---2------------0---0---------0---0-----
3-----1-------1------2-------2--------1-------1-----1-------1---
4------------------1------------------------------2-------------
5---2-------------------------------2---------------------------
6---------------------------------------------------------------
потерял я любовь не найду .................

Am * D(нажать и
отпустить мезинец) Em
1----------0----------(p)3--------------------------------0------
2--------1---1----------3--3----------------------------0---0----
3------2-------2------2------2---------0--------0-----0-------0--
4-------------------0--------------------0----0------------------
5---0------------------------------------------------------------
6------------------------------------3------2-------0------------
потерял я любовь и девчён - ку cвою

Am7 H7 Em Em
1--------3---------------2-----------------0---------------0-----
2------0---0-----------2---2-------------0---0----------0---0----
3----2------2-------2--------2---------1-------1-----1--------1--
4-----------------1------------------------------------2---------
5--0---------------------------------2---------------------------
6----------------------------------------------------------------
вы постойте a я поищю поищю

Am D(нажать и
отпустить мезинец) Em
1-----------0----------(p)3----------------------------0---------
2---------1---1---------3---3------------------------0---0-------
3-------2-------2-----2-------2------0---------0---0-------0-----
4-------------------0------------------0-----0-------------------
5-----0----------------------------------------------------------
6----------------------------------3-------2-----0---------------
потерял я любовь и девчё -н - ку свою

Am7 H7 Em
1--------3----------------2---------------0--------------0-------
2------0---0------------2---2-----------0---0----------0---0-----
3----2------2--------2-------2--------1-------1-----1--------1---
4------------------1------------------------------2--------------
5--0-------------------------------2-----------------------------
6----------------------------------------------------------------
вы постойте a я поищю

Проигрыш:

D7
1--7------5------3-----3--2--0-----2-----3--------2------2--------
2----0------0------0-----------------1-----1--------1------1------
3------0------0------0-----------------2-----2--------2------2----
4-----------------------------------------------------------------
5----------------------------------0--------------0---------------
6--0-------------0------------------------------------------------

C D
1--5-----3-----2-----2---2------------0------------(p)3-----------
2----0-----0-----0-----4------------1---1-----------3---3---------
3------0-----0-----0--------------2--------2------2--------2------
4-----------------------------------------------0-----------------
5-------------------------------3---------------------------------
6--0-----------0--------------------------------------------------

Em Am7 H7 Em Em
1-------------0-------3--------2---------0-------0----------------
2------------0-0-----0-0------2-2-------0-0-----0-0---------------
3--0----0---0---0---2---2----2---2-----1---1---1---1--------------
4---0--0--------------------1-----------------2-------------------
5------------------0-----------------2----------------------------
6-3---2---0-------------------------------------------------------

второй куплет играется боем такими аккордами:

Am(V) G(III) * (kak C7 на открытых, C E Dm(V)
только на 5 ладу)
1----5---------3-----------0----------------------0---0---5--------
2----5---------3-----------5----------------------1-- 0---6--------
3----6---------4-----------7----------------------0-- 1---7--------
4----7---------5-----------6----------------------2---2---7--------
5----7---------5-----------7----------------------3---2---5--------
6----5---------3-----------0----------------------0---0---5--------

Am(V) G(III) Am(V) *
Помню день когда лил тёплый дождь
Am(V) G(III) Am(V) *
мы стояли с тобой у реки
Am(V) G(III) C E
ты красива была и как роза цвела
Dm(V) * Am(V)
ну зачем ты так рано ушла

Проигрыш:

3 куплет: (Перебор как первый куплет)

Ты приносиш мне в писмах беду
ты уходиш печаль затaя
ну а я стою почтaльёна все жду
помогите же мне тополя

Проигрыш:

Таk как все поют эту песню по разному за слова не гарантирую.
кто знает другой скинте на мыло
наслаждайтесь мелодией!!!

Права на тексты некоторых песен принадлежат компании ООО "Контент и право" Все тексты песен являются собственностью их автора.
Сайт создан в студии Далим
© 2004-2024 Akkords.NET